  0
SECTION
  2
HEADER
  9
$ACADVER
  1
AC1015
  9
$ACADMAINTVER
 70
    18
  9
$DWGCODEPAGE
  3
ANSI_1252
  9
$INSBASE
 10
0.0
 20
0.0
 30
0.0
  9
$EXTMIN
 10
-209.5129387191414
 20
-510.1605833984918
 30
-0.0015258207003583
  9
$EXTMAX
 10
209.5193488773882
 20
179.5205846611883
 30
0.0000000349246037
  9
$LIMMIN
 10
0.0
 20
0.0
  9
$LIMMAX
 10
420.0
 20
297.0
  9
$ORTHOMODE
 70
     0
  9
$REGENMODE
 70
     1
  9
$FILLMODE
 70
     1
  9
$QTEXTMODE
 70
     0
  9
$MIRRTEXT
 70
     0
  9
$LTSCALE
 40
1.0
  9
$ATTMODE
 70
     1
  9
$TEXTSIZE
 40
2.5
  9
$TRACEWID
 40
1.0
  9
$TEXTSTYLE
  7
Standard
  9
$CLAYER
  8
0
  9
$CELTYPE
  6
ByLayer
  9
$CECOLOR
 62
   256
  9
$CELTSCALE
 40
1.0
  9
$DISPSILH
 70
     0
  9
$DIMSCALE
 40
1.0
  9
$DIMASZ
 40
2.5
  9
$DIMEXO
 40
0.625
  9
$DIMDLI
 40
3.75
  9
$DIMRND
 40
0.0
  9
$DIMDLE
 40
0.0
  9
$DIMEXE
 40
1.25
  9
$DIMTP
 40
0.0
  9
$DIMTM
 40
0.0
  9
$DIMTXT
 40
2.5
  9
$DIMCEN
 40
2.5
  9
$DIMTSZ
 40
0.0
  9
$DIMTOL
 70
     0
  9
$DIMLIM
 70
     0
  9
$DIMTIH
 70
     0
  9
$DIMTOH
 70
     0
  9
$DIMSE1
 70
     0
  9
$DIMSE2
 70
     0
  9
$DIMTAD
 70
     1
  9
$DIMZIN
 70
     8
  9
$DIMBLK
  1

  9
$DIMASO
 70
     1
  9
$DIMSHO
 70
     1
  9
$DIMPOST
  1

  9
$DIMAPOST
  1

  9
$DIMALT
 70
     0
  9
$DIMALTD
 70
     3
  9
$DIMALTF
 40
0.03937007874016
  9
$DIMLFAC
 40
1.0
  9
$DIMTOFL
 70
     1
  9
$DIMTVP
 40
0.0
  9
$DIMTIX
 70
     0
  9
$DIMSOXD
 70
     0
  9
$DIMSAH
 70
     0
  9
$DIMBLK1
  1

  9
$DIMBLK2
  1

  9
$DIMSTYLE
  2
ISO-25
  9
$DIMCLRD
 70
     0
  9
$DIMCLRE
 70
     0
  9
$DIMCLRT
 70
     0
  9
$DIMTFAC
 40
1.0
  9
$DIMGAP
 40
0.625
  9
$DIMJUST
 70
     0
  9
$DIMSD1
 70
     0
  9
$DIMSD2
 70
     0
  9
$DIMTOLJ
 70
     0
  9
$DIMTZIN
 70
     8
  9
$DIMALTZ
 70
     0
  9
$DIMALTTZ
 70
     0
  9
$DIMUPT
 70
     0
  9
$DIMDEC
 70
     2
  9
$DIMTDEC
 70
     2
  9
$DIMALTU
 70
     2
  9
$DIMALTTD
 70
     3
  9
$DIMTXSTY
  7
Standard
  9
$DIMAUNIT
 70
     0
  9
$DIMADEC
 70
     0
  9
$DIMALTRND
 40
0.0
  9
$DIMAZIN
 70
     0
  9
$DIMDSEP
 70
    44
  9
$DIMATFIT
 70
     3
  9
$DIMFRAC
 70
     0
  9
$DIMLDRBLK
  1

  9
$DIMLUNIT
 70
     2
  9
$DIMLWD
 70
    -2
  9
$DIMLWE
 70
    -2
  9
$DIMTMOVE
 70
     0
  9
$LUNITS
 70
     2
  9
$LUPREC
 70
     4
  9
$SKETCHINC
 40
1.0
  9
$FILLETRAD
 40
0.0
  9
$AUNITS
 70
     0
  9
$AUPREC
 70
     0
  9
$MENU
  1
.
  9
$ELEVATION
 40
0.0
  9
$PELEVATION
 40
0.0
  9
$THICKNESS
 40
0.0
  9
$LIMCHECK
 70
     0
  9
$CHAMFERA
 40
0.0
  9
$CHAMFERB
 40
0.0
  9
$CHAMFERC
 40
0.0
  9
$CHAMFERD
 40
0.0
  9
$SKPOLY
 70
     0
  9
$TDCREATE
 40
2460286.622500000
  9
$TDUCREATE
 40
2460286.330833334
  9
$TDUPDATE
 40
2460286.631793981
  9
$TDUUPDATE
 40
2460286.340127315
  9
$TDINDWG
 40
0.0033680556
  9
$TDUSRTIMER
 40
0.0033680556
  9
$USRTIMER
 70
     1
  9
$ANGBASE
 50
0.0
  9
$ANGDIR
 70
     0
  9
$PDMODE
 70
     0
  9
$PDSIZE
 40
0.0
  9
$PLINEWID
 40
0.0
  9
$SPLFRAME
 70
     0
  9
$SPLINETYPE
 70
     6
  9
$SPLINESEGS
 70
     8
  9
$HANDSEED
  5
13A2
  9
$SURFTAB1
 70
     6
  9
$SURFTAB2
 70
     6
  9
$SURFTYPE
 70
     6
  9
$SURFU
 70
     6
  9
$SURFV
 70
     6
  9
$UCSBASE
  2

  9
$UCSNAME
  2

  9
$UCSORG
 10
0.0
 20
0.0
 30
0.0
  9
$UCSXDIR
 10
1.0
 20
0.0
 30
0.0
  9
$UCSYDIR
 10
0.0
 20
1.0
 30
0.0
  9
$UCSORTHOREF
  2

  9
$UCSORTHOVIEW
 70
     0
  9
$UCSORGTOP
 10
0.0
 20
0.0
 30
0.0
  9
$UCSORGBOTTOM
 10
0.0
 20
0.0
 30
0.0
  9
$UCSORGLEFT
 10
0.0
 20
0.0
 30
0.0
  9
$UCSORGRIGHT
 10
0.0
 20
0.0
 30
0.0
  9
$UCSORGFRONT
 10
0.0
 20
0.0
 30
0.0
  9
$UCSORGBACK
 10
0.0
 20
0.0
 30
0.0
  9
$PUCSBASE
  2

  9
$PUCSNAME
  2

  9
$PUCSORG
 10
0.0
 20
0.0
 30
0.0
  9
$PUCSXDIR
 10
1.0
 20
0.0
 30
0.0
  9
$PUCSYDIR
 10
0.0
 20
1.0
 30
0.0
  9
$PUCSORTHOREF
  2

  9
$PUCSORTHOVIEW
 70
     0
  9
$PUCSORGTOP
 10
0.0
 20
0.0
 30
0.0
  9
$PUCSORGBOTTOM
 10
0.0
 20
0.0
 30
0.0
  9
$PUCSORGLEFT
 10
0.0
 20
0.0
 30
0.0
  9
$PUCSORGRIGHT
 10
0.0
 20
0.0
 30
0.0
  9
$PUCSORGFRONT
 10
0.0
 20
0.0
 30
0.0
  9
$PUCSORGBACK
 10
0.0
 20
0.0
 30
0.0
  9
$USERI1
 70
     0
  9
$USERI2
 70
     0
  9
$USERI3
 70
     0
  9
$USERI4
 70
     0
  9
$USERI5
 70
     0
  9
$USERR1
 40
0.0
  9
$USERR2
 40
0.0
  9
$USERR3
 40
0.0
  9
$USERR4
 40
0.0
  9
$USERR5
 40
0.0
  9
$WORLDVIEW
 70
     1
  9
$SHADEDGE
 70
     3
  9
$SHADEDIF
 70
    70
  9
$TILEMODE
 70
     1
  9
$MAXACTVP
 70
    48
  9
$PINSBASE
 10
0.0
 20
0.0
 30
0.0
  9
$PLIMCHECK
 70
     0
  9
$PEXTMIN
 10
0.0
 20
0.0
 30
0.0
  9
$PEXTMAX
 10
0.0
 20
0.0
 30
0.0
  9
$PLIMMIN
 10
0.0
 20
0.0
  9
$PLIMMAX
 10
12.0
 20
9.0
  9
$UNITMODE
 70
     0
  9
$VISRETAIN
 70
     1
  9
$PLINEGEN
 70
     0
  9
$PSLTSCALE
 70
     1
  9
$TREEDEPTH
 70
  3020
  9
$CMLSTYLE
  2
Standard
  9
$CMLJUST
 70
     0
  9
$CMLSCALE
 40
20.0
  9
$PROXYGRAPHICS
 70
     1
  9
$MEASUREMENT
 70
     1
  9
$CELWEIGHT
370
    -1
  9
$ENDCAPS
280
     0
  9
$JOINSTYLE
280
     0
  9
$LWDISPLAY
290
     0
  9
$INSUNITS
 70
     4
  9
$HYPERLINKBASE
  1

  9
$STYLESHEET
  1

  9
$XEDIT
290
     1
  9
$CEPSNTYPE
380
     0
  9
$PSTYLEMODE
290
     1
  9
$FINGERPRINTGUID
  2
{F076C30E-3F10-754B-AD36-B589FE558AAC}
  9
$VERSIONGUID
  2
{7900A3FC-17FD-8E4C-AE79-97D3B3B3BB62}
  9
$EXTNAMES
290
     1
  9
$PSVPSCALE
 40
0.0
  9
$OLESTARTUP
290
     0
  0
ENDSEC
  0
SECTION
  2
CLASSES
  0
CLASS
  1
ACDBDICTIONARYWDFLT
  2
AcDbDictionaryWithDefault
  3
ObjectDBX Classes
 90
        0
280
     0
281
     0
  0
CLASS
  1
ACDBPLACEHOLDER
  2
AcDbPlaceHolder
  3
ObjectDBX Classes
 90
        0
280
     0
281
     0
  0
CLASS
  1
LAYOUT
  2
AcDbLayout
  3
ObjectDBX Classes
 90
        0
280
     0
281
     0
  0
CLASS
  1
DICTIONARYVAR
  2
AcDbDictionaryVar
  3
ObjectDBX Classes
 90
        0
280
     0
281
     0
  0
CLASS
  1
TABLESTYLE
  2
AcDbTableStyle
  3
ObjectDBX Classes
 90
     4095
280
     0
281
     0
  0
CLASS
  1
MATERIAL
  2
AcDbMaterial
  3
ObjectDBX Classes
 90
     1153
280
     0
281
     0
  0
CLASS
  1
VISUALSTYLE
  2
AcDbVisualStyle
  3
ObjectDBX Classes
 90
     4095
280
     0
281
     0
  0
CLASS
  1
SCALE
  2
AcDbScale
  3
ObjectDBX Classes
 90
     1153
280
     0
281
     0
  0
CLASS
  1
MLEADERSTYLE
  2
AcDbMLeaderStyle
  3
ACDB_MLEADERSTYLE_CLASS
 90
     4095
280
     0
281
     0
  0
CLASS
  1
CELLSTYLEMAP
  2
AcDbCellStyleMap
  3
ObjectDBX Classes
 90
     1152
280
     0
281
     0
  0
CLASS
  1
EXACXREFPANELOBJECT
  2
ExAcXREFPanelObject
  3
EXAC_ESW
 90
    33793
280
     0
281
     0
  0
CLASS
  1
NPOCOLLECTION
  2
AcDbImpNonPersistentObjectsCollection
  3
ObjectDBX Classes
 90
    33921
280
     0
281
     0
  0
CLASS
  1
LAYER_INDEX
  2
AcDbLayerIndex
  3
ObjectDBX Classes
 90
    32768
280
     0
281
     0
  0
CLASS
  1
SPATIAL_INDEX
  2
AcDbSpatialIndex
  3
ObjectDBX Classes
 90
    32768
280
     0
281
     0
  0
CLASS
  1
IDBUFFER
  2
AcDbIdBuffer
  3
ObjectDBX Classes
 90
    32768
280
     0
281
     0
  0
CLASS
  1
ACDBSECTIONVIEWSTYLE
  2
AcDbSectionViewStyle
  3
ObjectDBX Classes
 90
     1025
280
     0
281
     0
  0
CLASS
  1
ACDBDETAILVIEWSTYLE
  2
AcDbDetailViewStyle
  3
ObjectDBX Classes
 90
     1025
280
     0
281
     0
  0
CLASS
  1
XRECORD
  2
AcDbXrecord
  3
ObjectDBX Classes
 90
        0
280
     0
281
     0
  0
ENDSEC
  0
SECTION
  2
TABLES
  0
TABLE
  2
VPORT
  5
8
102
{ACAD_XDICTIONARY
360
12B0
102
}
330
0
100
AcDbSymbolTable
 70
     1
  0
VPORT
  5
EA
330
8
100
AcDbSymbolTableRecord
100
AcDbViewportTableRecord
  2
*Active
 70
     0
 10
0.0
 20
0.0
 11
1.0
 21
1.0
 12
0.0032050791234326
 22
-165.3199993686518
 13
0.0
 23
0.0
 14
10.0
 24
10.0
 15
10.0
 25
10.0
 16
0.0
 26
0.0
 36
1.0
 17
0.0
 27
0.0
 37
0.0
 40
733.4134210370588
 41
0.9846153846153846
 42
50.0
 43
0.0
 44
0.0
 50
0.0
 51
0.0
 71
     0
 72
  1000
 73
     1
 74
     3
 75
     0
 76
     1
 77
     0
 78
     0
281
     0
 65
     1
110
0.0
120
0.0
130
0.0
111
1.0
121
0.0
131
0.0
112
0.0
122
1.0
132
0.0
 79
     0
146
0.0
1001
ACAD_NAV_VCDISPLAY
1070
     3
  0
ENDTAB
  0
TABLE
  2
LTYPE
  5
5
330
0
100
AcDbSymbolTable
 70
     1
  0
LTYPE
  5
14
330
5
100
AcDbSymbolTableRecord
100
AcDbLinetypeTableRecord
  2
ByBlock
 70
     0
  3

 72
    65
 73
     0
 40
0.0
  0
LTYPE
  5
15
330
5
100
AcDbSymbolTableRecord
100
AcDbLinetypeTableRecord
  2
ByLayer
 70
     0
  3

 72
    65
 73
     0
 40
0.0
  0
LTYPE
  5
16
330
5
100
AcDbSymbolTableRecord
100
AcDbLinetypeTableRecord
  2
Continuous
 70
     0
  3
Solid line
 72
    65
 73
     0
 40
0.0
  0
ENDTAB
  0
TABLE
  2
LAYER
  5
2
102
{ACAD_XDICTIONARY
360
1FF
102
}
330
0
100
AcDbSymbolTable
 70
     1
  0
LAYER
  5
10
102
{ACAD_XDICTIONARY
360
13C
102
}
330
2
100
AcDbSymbolTableRecord
100
AcDbLayerTableRecord
  2
0
 70
     0
 62
     7
  6
Continuous
370
    -3
390
F
  0
ENDTAB
  0
TABLE
  2
STYLE
  5
3
330
0
100
AcDbSymbolTable
 70
     1
  0
STYLE
  5
11
330
3
100
AcDbSymbolTableRecord
100
AcDbTextStyleTableRecord
  2
Standard
 70
     0
 40
0.0
 41
1.0
 50
0.0
 71
     0
 42
2.5
  3
arial.ttf
  4

1001
ACAD
1000
Arial
1071
       34
  0
ENDTAB
  0
TABLE
  2
VIEW
  5
6
330
0
100
AcDbSymbolTable
 70
     0
  0
ENDTAB
  0
TABLE
  2
UCS
  5
7
330
0
100
AcDbSymbolTable
 70
     0
  0
ENDTAB
  0
TABLE
  2
APPID
  5
9
330
0
100
AcDbSymbolTable
 70
     8
  0
APPID
  5
12
330
9
100
AcDbSymbolTableRecord
100
AcDbRegAppTableRecord
  2
ACAD
 70
     0
  0
APPID
  5
9E
330
9
100
AcDbSymbolTableRecord
100
AcDbRegAppTableRecord
  2
ACAD_PSEXT
 70
     0
  0
APPID
  5
133
330
9
100
AcDbSymbolTableRecord
100
AcDbRegAppTableRecord
  2
AcadAnnoPO
 70
     0
  0
APPID
  5
134
330
9
100
AcDbSymbolTableRecord
100
AcDbRegAppTableRecord
  2
AcadAnnotative
 70
     0
  0
APPID
  5
135
330
9
100
AcDbSymbolTableRecord
100
AcDbRegAppTableRecord
  2
ACAD_DSTYLE_DIMJAG
 70
     0
  0
APPID
  5
136
330
9
100
AcDbSymbolTableRecord
100
AcDbRegAppTableRecord
  2
ACAD_DSTYLE_DIMTALN
 70
     0
  0
APPID
  5
165
330
9
100
AcDbSymbolTableRecord
100
AcDbRegAppTableRecord
  2
ACAD_MLEADERVER
 70
     0
  0
APPID
  5
217
330
9
100
AcDbSymbolTableRecord
100
AcDbRegAppTableRecord
  2
ACAD_NAV_VCDISPLAY
 70
     0
  0
ENDTAB
  0
TABLE
  2
DIMSTYLE
  5
A
330
0
100
AcDbSymbolTable
 70
     1
100
AcDbDimStyleTable
 71
     0
  0
DIMSTYLE
105
27
330
A
100
AcDbSymbolTableRecord
100
AcDbDimStyleTableRecord
  2
ISO-25
 70
     0
 41
2.5
 42
0.625
 43
3.75
 44
1.25
 73
     0
 74
     0
 77
     1
 78
     8
140
2.5
141
2.5
143
0.03937007874016
147
0.625
171
     3
172
     1
271
     2
272
     2
274
     3
278
    44
283
     0
284
     8
340
11
  0
ENDTAB
  0
TABLE
  2
BLOCK_RECORD
  5
1
330
0
100
AcDbSymbolTable
 70
     7
  0
BLOCK_RECORD
  5
1F
102
{ACAD_XDICTIONARY
360
1CE
102
}
330
1
100
AcDbSymbolTableRecord
100
AcDbBlockTableRecord
  2
*Model_Space
340
22
  0
BLOCK_RECORD
  5
D2
102
{ACAD_XDICTIONARY
360
1263
102
}
330
1
100
AcDbSymbolTableRecord
100
AcDbBlockTableRecord
  2
*Paper_Space
340
D3
  0
BLOCK_RECORD
  5
D6
102
{ACAD_XDICTIONARY
360
1265
102
}
330
1
100
AcDbSymbolTableRecord
100
AcDbBlockTableRecord
  2
*Paper_Space0
340
D7
  0
BLOCK_RECORD
  5
FE5
330
1
100
AcDbSymbolTableRecord
100
AcDbBlockTableRecord
  2
CBH220-Front
340
0
102
{BLKREFS
331
1259
102
}
  0
BLOCK_RECORD
  5
105F
330
1
100
AcDbSymbolTableRecord
100
AcDbBlockTableRecord
  2
CBH220-Left
340
0
102
{BLKREFS
331
125A
102
}
  0
BLOCK_RECORD
  5
10B7
330
1
100
AcDbSymbolTableRecord
100
AcDbBlockTableRecord
  2
CBH220-Right
340
0
102
{BLKREFS
331
125B
102
}
  0
BLOCK_RECORD
  5
1107
330
1
100
AcDbSymbolTableRecord
100
AcDbBlockTableRecord
  2
CBH220-Top
340
0
102
{BLKREFS
331
125C
102
}
  0
BLOCK_RECORD
  5
113A
330
1
100
AcDbSymbolTableRecord
100
AcDbBlockTableRecord
  2
CBH220-Bottom
340
0
102
{BLKREFS
331
125D
102
}
  0
BLOCK_RECORD
  5
1160
330
1
100
AcDbSymbolTableRecord
100
AcDbBlockTableRecord
  2
CBH220-ISO
340
0
102
{BLKREFS
331
125E
102
}
  0
ENDTAB
  0
ENDSEC
  0
SECTION
  2
BLOCKS
  0
BLOCK
  5
20
330
1F
100
AcDbEntity
  8
0
100
AcDbBlockBegin
  2
*Model_Space
 70
     0
 10
0.0
 20
0.0
 30
0.0
  3
*Model_Space
  1

  0
ENDBLK
  5
21
330
1F
100
AcDbEntity
  8
0
100
AcDbBlockEnd
  0
BLOCK
  5
D4
330
D2
100
AcDbEntity
 67
     1
  8
0
100
AcDbBlockBegin
  2
*Paper_Space
 70
     0
 10
0.0
 20
0.0
 30
0.0
  3
*Paper_Space
  1

  0
ENDBLK
  5
D5
330
D2
100
AcDbEntity
 67
     1
  8
0
100
AcDbBlockEnd
  0
BLOCK
  5
D8
330
D6
100
AcDbEntity
 67
     1
  8
0
100
AcDbBlockBegin
  2
*Paper_Space0
 70
     0
 10
0.0
 20
0.0
 30
0.0
  3
*Paper_Space0
  1

  0
ENDBLK
  5
D9
330
D6
100
AcDbEntity
 67
     1
  8
0
100
AcDbBlockEnd
  0
BLOCK
  5
FE6
330
FE5
100
AcDbEntity
  8
0
100
AcDbBlockBegin
  2
CBH220-Front
 70
     0
 10
0.0
 20
0.0
 30
0.0
  3
CBH220-Front
  1

  0
LINE
  5
FE8
330
FE5
100
AcDbEntity
  8
0
100
AcDbLine
 10
3.749999999999979
 20
-16.00000000000001
 30
0.0
 11
1.249999999999987
 21
-16.00000000000001
 31
0.0
  0
LINE
  5
FE9
330
FE5
100
AcDbEntity
  8
0
100
AcDbLine
 10
1.249999999999987
 20
-8.000000000000007
 30
0.0
 11
3.749999999999978
 21
-8.000000000000007
 31
0.0
  0
LINE
  5
FEA
330
FE5
100
AcDbEntity
  8
0
100
AcDbLine
 10
3.749999999999989
 20
0.0
 30
0.0
 11
1.249999999999987
 21
0.0
 31
0.0
  0
LINE
  5
FEB
330
FE5
100
AcDbEntity
  8
0
100
AcDbLine
 10
3.749999999999979
 20
-8.000000000000007
 30
0.0
 11
8.000000000000003
 21
-8.000000000000007
 31
0.0
  0
ARC
  5
FEC
330
FE5
100
AcDbEntity
  8
0
100
AcDbCircle
 10
1.249999999999987
 20
-13.50000000000001
 30
0.0
 40
2.499999999999982
100
AcDbArc
 50
270.0
 51
0.0
  0
ARC
  5
FED
330
FE5
100
AcDbEntity
  8
0
100
AcDbCircle
 10
1.249999999999987
 20
-10.5
 30
0.0
 40
2.5
100
AcDbArc
 50
0.0
 51
90.0
  0
LINE
  5
FEE
330
FE5
100
AcDbEntity
  8
0
100
AcDbLine
 10
8.000000000000005
 20
-16.00000000000001
 30
0.0
 11
3.749999999999979
 21
-16.00000000000001
 31
0.0
  0
ARC
  5
FEF
330
FE5
100
AcDbEntity
  8
0
100
AcDbCircle
 10
8.000000000000003
 20
-12.00000000000001
 30
0.0
 40
4.0
100
AcDbArc
 50
270.0
 51
90.0
  0
LINE
  5
FF0
330
FE5
100
AcDbEntity
  8
0
100
AcDbLine
 10
3.749999999999987
 20
-195.5
 30
0.0
 11
3.749999999999987
 21
-24.49999999999999
 31
0.0
  0
LINE
  5
FF1
330
FE5
100
AcDbEntity
  8
0
100
AcDbLine
 10
3.749999999999987
 20
-195.5
 30
0.0
 11
3.749999999999987
 21
-197.0
 31
0.0
  0
LINE
  5
FF2
330
FE5
100
AcDbEntity
  8
0
100
AcDbLine
 10
3.749999999999987
 20
-22.99999999999999
 30
0.0
 11
3.749999999999987
 21
-24.49999999999999
 31
0.0
  0
ARC
  5
FF3
330
FE5
100
AcDbEntity
  8
0
100
AcDbCircle
 10
1.249999999999987
 20
-197.0
 30
0.0
 40
2.5
100
AcDbArc
 50
270.0
 51
0.0
  0
ARC
  5
FF4
330
FE5
100
AcDbEntity
  8
0
100
AcDbCircle
 10
1.249999999999987
 20
-22.99999999999999
 30
0.0
 40
2.5
100
AcDbArc
 50
0.0
 51
90.00000000000003
  0
LINE
  5
FF5
330
FE5
100
AcDbEntity
  8
0
100
AcDbLine
 10
-26.00000000000147
 20
-220.0
 30
0.0
 11
-30.00000000000147
 21
-216.0
 31
0.0
  0
LINE
  5
FF6
330
FE5
100
AcDbEntity
  8
0
100
AcDbLine
 10
-30.00000000000146
 20
-116.5
 30
0.0
 11
-26.00000000000144
 21
-112.5
 31
0.0
  0
LINE
  5
FF7
330
FE5
100
AcDbEntity
  8
0
100
AcDbLine
 10
30.00000000000143
 20
-103.5
 30
0.0
 11
26.00000000000144
 21
-107.5
 31
0.0
  0
LINE
  5
FF8
330
FE5
100
AcDbEntity
  8
0
100
AcDbLine
 10
1.249999999999987
 20
-220.0
 30
0.0
 11
1.249999999999987
 21
-216.0
 31
0.0
  0
LINE
  5
FF9
330
FE5
100
AcDbEntity
  8
0
100
AcDbLine
 10
1.249999999999987
 20
-216.0
 30
0.0
 11
-1.250000000000012
 21
-216.0
 31
0.0
  0
LINE
  5
FFA
330
FE5
100
AcDbEntity
  8
0
100
AcDbLine
 10
-1.250000000000012
 20
-216.0
 30
0.0
 11
-1.250000000000012
 21
-220.0
 31
0.0
  0
LINE
  5
FFB
330
FE5
100
AcDbEntity
  8
0
100
AcDbLine
 10
-1.250000000000012
 20
-220.0
 30
0.0
 11
1.249999999999987
 21
-220.0
 31
0.0
  0
LINE
  5
FFC
330
FE5
100
AcDbEntity
  8
0
100
AcDbLine
 10
-1.250000000000012
 20
0.0
 30
0.0
 11
-1.250000000000012
 21
-4.000000000000003
 31
0.0
  0
LINE
  5
FFD
330
FE5
100
AcDbEntity
  8
0
100
AcDbLine
 10
-1.250000000000012
 20
-4.000000000000003
 30
0.0
 11
1.249999999999987
 21
-4.000000000000003
 31
0.0
  0
LINE
  5
FFE
330
FE5
100
AcDbEntity
  8
0
100
AcDbLine
 10
1.249999999999987
 20
-4.000000000000003
 30
0.0
 11
1.249999999999987
 21
0.0
 31
0.0
  0
LINE
  5
FFF
330
FE5
100
AcDbEntity
  8
0
100
AcDbLine
 10
1.249999999999987
 20
0.0
 30
0.0
 11
-1.250000000000012
 21
0.0
 31
0.0
  0
LINE
  5
1000
330
FE5
100
AcDbEntity
  8
0
100
AcDbLine
 10
26.00000000000143
 20
0.0
 30
0.0
 11
30.00000000000143
 21
-4.000000000000003
 31
0.0
  0
LINE
  5
1001
330
FE5
100
AcDbEntity
  8
0
100
AcDbLine
 10
-30.00000000000147
 20
-216.0
 30
0.0
 11
-30.00000000000146
 21
-116.5
 31
0.0
  0
LINE
  5
1002
330
FE5
100
AcDbEntity
  8
0
100
AcDbLine
 10
-3.750000000000028
 20
-220.0
 30
0.0
 11
-26.00000000000147
 21
-220.0
 31
0.0
  0
ARC
  5
1003
330
FE5
100
AcDbEntity
  8
0
100
AcDbCircle
 10
-2.000000000001455
 20
-202.5
 30
0.0
 40
2.499999999999996
100
AcDbArc
 50
134.4270040007589
 51
225.5729959992407
  0
LINE
  5
1004
330
FE5
100
AcDbEntity
  8
0
100
AcDbLine
 10
9.999999999998557
 20
-200.0
 30
0.0
 11
1.249999999999962
 21
-200.0
 31
0.0
  0
ARC
  5
1005
330
FE5
100
AcDbEntity
  8
0
100
AcDbCircle
 10
9.999999999998543
 20
-180.0
 30
0.0
 40
20.0
100
AcDbArc
 50
270.0000000000001
 51
90.0
  0
LINE
  5
1006
330
FE5
100
AcDbEntity
  8
0
100
AcDbLine
 10
3.749999999999972
 20
-160.0
 30
0.0
 11
9.999999999998546
 21
-160.0
 31
0.0
  0
ARC
  5
1007
330
FE5
100
AcDbEntity
  8
0
100
AcDbCircle
 10
-2.000000000001463
 20
-157.5
 30
0.0
 40
2.5
100
AcDbArc
 50
134.4270040007585
 51
225.5729959992408
  0
LINE
  5
1008
330
FE5
100
AcDbEntity
  8
0
100
AcDbLine
 10
-26.00000000000144
 20
-112.5
 30
0.0
 11
-3.750000000000004
 21
-112.5
 31
0.0
  0
CIRCLE
  5
1009
330
FE5
100
AcDbEntity
  8
0
100
AcDbCircle
 10
-22.50000000000006
 20
-119.9999999999999
 30
0.0
 40
2.5
  0
CIRCLE
  5
100A
330
FE5
100
AcDbEntity
  8
0
100
AcDbCircle
 10
-12.50000000000008
 20
-130.0
 30
0.0
 40
2.5
  0
CIRCLE
  5
100B
330
FE5
100
AcDbEntity
  8
0
100
AcDbCircle
 10
-22.50000000000007
 20
-139.9999999999999
 30
0.0
 40
2.5
  0
CIRCLE
  5
100C
330
FE5
100
AcDbEntity
  8
0
100
AcDbCircle
 10
-12.50000000000008
 20
-150.0
 30
0.0
 40
2.5
  0
CIRCLE
  5
100D
330
FE5
100
AcDbEntity
  8
0
100
AcDbCircle
 10
-22.50000000000008
 20
-159.9999999999999
 30
0.0
 40
2.5
  0
CIRCLE
  5
100E
330
FE5
100
AcDbEntity
  8
0
100
AcDbCircle
 10
-12.5000000000001
 20
-169.0
 30
0.0
 40
2.5
  0
CIRCLE
  5
100F
330
FE5
100
AcDbEntity
  8
0
100
AcDbCircle
 10
12.49999999999989
 20
-167.75
 30
0.0
 40
2.5
  0
CIRCLE
  5
1010
330
FE5
100
AcDbEntity
  8
0
100
AcDbCircle
 10
22.4999999999999
 20
-180.0
 30
0.0
 40
2.5
  0
CIRCLE
  5
1011
330
FE5
100
AcDbEntity
  8
0
100
AcDbCircle
 10
12.49999999999988
 20
-192.2499999999999
 30
0.0
 40
2.5
  0
CIRCLE
  5
1012
330
FE5
100
AcDbEntity
  8
0
100
AcDbCircle
 10
-22.50000000000009
 20
-192.5
 30
0.0
 40
2.5
  0
CIRCLE
  5
1013
330
FE5
100
AcDbEntity
  8
0
100
AcDbCircle
 10
-12.50000000000009
 20
-202.5
 30
0.0
 40
2.5
  0
CIRCLE
  5
1014
330
FE5
100
AcDbEntity
  8
0
100
AcDbCircle
 10
-22.50000000000009
 20
-212.5
 30
0.0
 40
2.5
  0
ARC
  5
1015
330
FE5
100
AcDbEntity
  8
0
100
AcDbCircle
 10
-0.000000000001925
 20
-125.7499999999999
 30
0.0
 40
51.5
100
AcDbArc
 50
256.2997665116288
 51
263.8693415946379
  0
LINE
  5
1016
330
FE5
100
AcDbEntity
  8
0
100
AcDbLine
 10
-5.500000000001463
 20
-176.9554684579684
 30
0.0
 11
-5.500000000001463
 21
-176.75
 31
0.0
  0
ARC
  5
1017
330
FE5
100
AcDbEntity
  8
0
100
AcDbCircle
 10
-0.000000000001546
 20
-176.75
 30
0.0
 40
5.5
100
AcDbArc
 50
132.9858860801687
 51
180.0
  0
ARC
  5
1018
330
FE5
100
AcDbEntity
  8
0
100
AcDbCircle
 10
-0.000000000001546
 20
-176.75
 30
0.0
 40
5.5
100
AcDbArc
 50
0.0
 51
47.01411391978787
  0
LINE
  5
1019
330
FE5
100
AcDbEntity
  8
0
100
AcDbLine
 10
5.499999999998461
 20
-176.75
 30
0.0
 11
5.499999999998461
 21
-182.75
 31
0.0
  0
ARC
  5
101A
330
FE5
100
AcDbEntity
  8
0
100
AcDbCircle
 10
-0.0000000000015473
 20
-182.75
 30
0.0
 40
5.5
100
AcDbArc
 50
312.9858860802121
 51
0.0
  0
ARC
  5
101B
330
FE5
100
AcDbEntity
  8
0
100
AcDbCircle
 10
-0.000000000001925
 20
-125.7499999999999
 30
0.0
 40
62.50000000000001
100
AcDbArc
 50
256.2997665116289
 51
266.5601872324866
  0
ARC
  5
101C
330
FE5
100
AcDbEntity
  8
0
100
AcDbCircle
 10
-13.50000000000152
 20
-181.1282448259242
 30
0.0
 40
5.500000000000001
100
AcDbArc
 50
76.29976651162883
 51
256.2997665116288
  0
LINE
  5
101D
330
FE5
100
AcDbEntity
  8
0
100
AcDbLine
 10
30.00000000000143
 20
-4.000000000000003
 30
0.0
 11
30.00000000000143
 21
-103.5
 31
0.0
  0
LINE
  5
101E
330
FE5
100
AcDbEntity
  8
0
100
AcDbLine
 10
-1.250000000000012
 20
-4.000000000000003
 30
0.0
 11
-1.250000000000012
 21
-216.0
 31
0.0
  0
LINE
  5
101F
330
FE5
100
AcDbEntity
  8
0
100
AcDbLine
 10
1.249999999999987
 20
-216.0
 30
0.0
 11
1.249999999999987
 21
-3.999999999999985
 31
0.0
  0
LINE
  5
1020
330
FE5
100
AcDbEntity
  8
0
100
AcDbLine
 10
3.749999999999989
 20
0.0
 30
0.0
 11
26.00000000000143
 21
0.0
 31
0.0
  0
ARC
  5
1021
330
FE5
100
AcDbEntity
  8
0
100
AcDbCircle
 10
2.000000000001424
 20
-27.50000000000003
 30
0.0
 40
2.5
100
AcDbArc
 50
314.4270040007591
 51
45.57299599924083
  0
LINE
  5
1022
330
FE5
100
AcDbEntity
  8
0
100
AcDbLine
 10
-9.999999999998586
 20
-30.00000000000007
 30
0.0
 11
-1.250000000000037
 21
-30.00000000000007
 31
0.0
  0
ARC
  5
1023
330
FE5
100
AcDbEntity
  8
0
100
AcDbCircle
 10
-9.999999999998564
 20
-50.00000000000003
 30
0.0
 40
20.00000000000001
100
AcDbArc
 50
90.00000000000005
 51
270.0
  0
LINE
  5
1024
330
FE5
100
AcDbEntity
  8
0
100
AcDbLine
 10
-3.750000000000035
 20
-70.00000000000003
 30
0.0
 11
-9.999999999998564
 21
-70.00000000000003
 31
0.0
  0
LINE
  5
1025
330
FE5
100
AcDbEntity
  8
0
100
AcDbLine
 10
26.00000000000144
 20
-107.5
 30
0.0
 11
3.749999999999982
 21
-107.5
 31
0.0
  0
CIRCLE
  5
1026
330
FE5
100
AcDbEntity
  8
0
100
AcDbCircle
 10
22.50000000000003
 20
-7.5
 30
0.0
 40
2.5
  0
CIRCLE
  5
1027
330
FE5
100
AcDbEntity
  8
0
100
AcDbCircle
 10
22.50000000000003
 20
-27.5
 30
0.0
 40
2.5
  0
CIRCLE
  5
1028
330
FE5
100
AcDbEntity
  8
0
100
AcDbCircle
 10
12.50000000000002
 20
-37.5
 30
0.0
 40
2.5
  0
CIRCLE
  5
1029
330
FE5
100
AcDbEntity
  8
0
100
AcDbCircle
 10
-12.50000000000004
 20
-37.75000000000002
 30
0.0
 40
2.5
  0
CIRCLE
  5
102A
330
FE5
100
AcDbEntity
  8
0
100
AcDbCircle
 10
-22.50000000000004
 20
-50.0
 30
0.0
 40
2.5
  0
CIRCLE
  5
102B
330
FE5
100
AcDbEntity
  8
0
100
AcDbCircle
 10
-12.50000000000002
 20
-62.25000000000001
 30
0.0
 40
2.5
  0
CIRCLE
  5
102C
330
FE5
100
AcDbEntity
  8
0
100
AcDbCircle
 10
22.50000000000003
 20
-70.0
 30
0.0
 40
2.5
  0
CIRCLE
  5
102D
330
FE5
100
AcDbEntity
  8
0
100
AcDbCircle
 10
12.50000000000005
 20
-80.0
 30
0.0
 40
2.5
  0
CIRCLE
  5
102E
330
FE5
100
AcDbEntity
  8
0
100
AcDbCircle
 10
22.50000000000003
 20
-90.0
 30
0.0
 40
2.5
  0
CIRCLE
  5
102F
330
FE5
100
AcDbEntity
  8
0
100
AcDbCircle
 10
12.50000000000005
 20
-100.0
 30
0.0
 40
2.5
  0
LINE
  5
1030
330
FE5
100
AcDbEntity
  8
0
100
AcDbLine
 10
-5.499999999998554
 20
-53.00000000000004
 30
0.0
 11
-5.499999999998554
 21
-47.00000000000002
 31
0.0
  0
ARC
  5
1031
330
FE5
100
AcDbEntity
  8
0
100
AcDbCircle
 10
0.0000000000014512
 20
-53.00000000000004
 30
0.0
 40
5.5
100
AcDbArc
 50
180.0
 51
256.8634412130393
  0
ARC
  5
1032
330
FE5
100
AcDbEntity
  8
0
100
AcDbCircle
 10
-1.96275653701992
 20
-109.9625843382975
 30
0.0
 40
51.5
100
AcDbArc
 50
74.25976397937912
 51
83.63122624389314
  0
ARC
  5
1033
330
FE5
100
AcDbEntity
  8
0
100
AcDbCircle
 10
13.50000000000144
 20
-55.10000000000004
 30
0.0
 40
5.5
100
AcDbArc
 50
254.2597639793791
 51
81.9318494999478
  0
ARC
  5
1034
330
FE5
100
AcDbEntity
  8
0
100
AcDbCircle
 10
5.500000000001481
 20
-111.5358042380899
 30
0.0
 40
62.5
100
AcDbArc
 50
81.93184949994769
 51
90.00000000000003
  0
LINE
  5
1035
330
FE5
100
AcDbEntity
  8
0
100
AcDbLine
 10
5.500000000001477
 20
-47.00000000000002
 30
0.0
 11
5.500000000001477
 21
-49.03580423808989
 31
0.0
  0
ARC
  5
1036
330
FE5
100
AcDbEntity
  8
0
100
AcDbCircle
 10
0.0000000000014329
 20
-47.00000000000002
 30
0.0
 40
5.5
100
AcDbArc
 50
132.9858860802109
 51
180.0
  0
ARC
  5
1037
330
FE5
100
AcDbEntity
  8
0
100
AcDbCircle
 10
0.0000000000014329
 20
-47.00000000000002
 30
0.0
 40
5.5
100
AcDbArc
 50
0.0
 51
47.01411391983046
  0
ARC
  5
1038
330
FE5
100
AcDbEntity
  8
0
100
AcDbCircle
 10
2.000000000001428
 20
-72.50000000000003
 30
0.0
 40
2.5
100
AcDbArc
 50
314.4270040007591
 51
45.57299599924092
  0
LINE
  5
1039
330
FE5
100
AcDbEntity
  8
0
100
AcDbLine
 10
-3.750000000000013
 20
-37.25000000000001
 30
0.0
 11
-3.750000000000013
 21
-52.74999999999999
 31
0.0
  0
LINE
  5
103A
330
FE5
100
AcDbEntity
  8
0
100
AcDbLine
 10
-3.750000000000013
 20
-67.25
 30
0.0
 11
-3.750000000000013
 21
-82.75
 31
0.0
  0
LINE
  5
103B
330
FE5
100
AcDbEntity
  8
0
100
AcDbLine
 10
-3.750000000000013
 20
-97.25000000000001
 30
0.0
 11
-3.750000000000013
 21
-112.75
 31
0.0
  0
LINE
  5
103C
330
FE5
100
AcDbEntity
  8
0
100
AcDbLine
 10
-3.750000000000013
 20
-127.25
 30
0.0
 11
-3.750000000000013
 21
-142.75
 31
0.0
  0
LINE
  5
103D
330
FE5
100
AcDbEntity
  8
0
100
AcDbLine
 10
-3.750000000000013
 20
-157.25
 30
0.0
 11
-3.750000000000013
 21
-172.75
 31
0.0
  0
LINE
  5
103E
330
FE5
100
AcDbEntity
  8
0
100
AcDbLine
 10
-3.250000000000012
 20
-52.74999999999999
 30
0.0
 11
-3.750000000000013
 21
-52.74999999999999
 31
0.0
  0
LINE
  5
103F
330
FE5
100
AcDbEntity
  8
0
100
AcDbLine
 10
-3.250000000000012
 20
-37.25000000000001
 30
0.0
 11
-3.750000000000013
 21
-37.25000000000001
 31
0.0
  0
LINE
  5
1040
330
FE5
100
AcDbEntity
  8
0
100
AcDbLine
 10
-3.250000000000012
 20
-82.75
 30
0.0
 11
-3.750000000000013
 21
-82.75
 31
0.0
  0
LINE
  5
1041
330
FE5
100
AcDbEntity
  8
0
100
AcDbLine
 10
-3.250000000000012
 20
-67.25
 30
0.0
 11
-3.750000000000013
 21
-67.25
 31
0.0
  0
LINE
  5
1042
330
FE5
100
AcDbEntity
  8
0
100
AcDbLine
 10
-3.250000000000012
 20
-112.75
 30
0.0
 11
-3.750000000000013
 21
-112.75
 31
0.0
  0
LINE
  5
1043
330
FE5
100
AcDbEntity
  8
0
100
AcDbLine
 10
-3.250000000000012
 20
-97.25000000000001
 30
0.0
 11
-3.750000000000013
 21
-97.25000000000001
 31
0.0
  0
LINE
  5
1044
330
FE5
100
AcDbEntity
  8
0
100
AcDbLine
 10
-3.250000000000012
 20
-142.75
 30
0.0
 11
-3.750000000000013
 21
-142.75
 31
0.0
  0
LINE
  5
1045
330
FE5
100
AcDbEntity
  8
0
100
AcDbLine
 10
-3.250000000000012
 20
-127.25
 30
0.0
 11
-3.750000000000013
 21
-127.25
 31
0.0
  0
LINE
  5
1046
330
FE5
100
AcDbEntity
  8
0
100
AcDbLine
 10
-3.250000000000012
 20
-172.75
 30
0.0
 11
-3.750000000000013
 21
-172.75
 31
0.0
  0
LINE
  5
1047
330
FE5
100
AcDbEntity
  8
0
100
AcDbLine
 10
-3.250000000000012
 20
-157.25
 30
0.0
 11
-3.750000000000013
 21
-157.25
 31
0.0
  0
LINE
  5
1048
330
FE5
100
AcDbEntity
  8
0
100
AcDbLine
 10
-3.750000000000012
 20
-187.25
 30
0.0
 11
-3.750000000000012
 21
-202.75
 31
0.0
  0
LINE
  5
1049
330
FE5
100
AcDbEntity
  8
0
100
AcDbLine
 10
-3.250000000000012
 20
-202.75
 30
0.0
 11
-3.750000000000012
 21
-202.75
 31
0.0
  0
LINE
  5
104A
330
FE5
100
AcDbEntity
  8
0
100
AcDbLine
 10
-3.250000000000012
 20
-187.25
 30
0.0
 11
-3.750000000000012
 21
-187.25
 31
0.0
  0
LINE
  5
104B
330
FE5
100
AcDbEntity
  8
0
100
AcDbLine
 10
3.749999999999987
 20
-10.50000000000001
 30
0.0
 11
3.749999999999987
 21
-13.50000000000001
 31
0.0
  0
LINE
  5
104C
330
FE5
100
AcDbEntity
  8
0
100
AcDbLine
 10
-2.50000000000095
 20
-155.0
 30
0.0
 11
-1.250000000000012
 21
-155.0
 31
0.0
  0
SPLINE
  5
104D
330
FE5
100
AcDbEntity
  8
0
100
AcDbSpline
210
0.0
220
0.0
230
1.0
 70
     8
 71
     3
 72
    12
 73
     8
 74
     0
 42
0.000000001
 43
0.0000000001
 40
0.0
 40
0.0
 40
0.0
 40
0.0
 40
0.0373203676622203
 40
0.0373203676622203
 40
0.0541955353009024
 40
0.0541955353009024
 40
0.0700894530209943
 40
0.0700894530209943
 40
0.0700894530209943
 40
0.0700894530209943
 10
-3.750000000000011
 20
-155.7146428928628
 30
0.0
 10
-3.674366527641269
 20
-155.6158742603169
 30
0.0
 10
-3.496805981477807
 20
-155.4004551554147
 30
0.0
 10
-3.11338634772071
 20
-155.1570025335454
 30
0.0
 10
-2.987563523963827
 20
-155.0973201918143
 30
0.0
 10
-2.737610273362618
 20
-155.0194542030253
 30
0.0
 10
-2.616846522125265
 20
-154.9999959154826
 30
0.0
 10
-2.500000000000948
 20
-155.0
 30
0.0
  0
SPLINE
  5
104E
330
FE5
100
AcDbEntity
  8
0
100
AcDbSpline
210
0.0
220
0.0
230
1.0
 70
     8
 71
     3
 72
    10
 73
     6
 74
     0
 42
0.000000001
 43
0.0000000001
 40
0.0
 40
0.0
 40
0.0
 40
0.0
 40
0.1365716105051353
 40
0.1365716105051353
 40
0.3426352983179537
 40
0.3426352983179537
 40
0.3426352983179537
 40
0.3426352983179537
 10
-1.250000000001886
 20
-155.0
 30
0.0
 10
-1.644248280436198
 20
-154.9999967918876
 30
0.0
 10
-2.067360211383057
 20
-155.0543170582469
 30
0.0
 10
-3.135930009285289
 20
-155.3393874858995
 30
0.0
 10
-3.588820113509767
 20
-155.6095878156128
 30
0.0
 10
-3.749999999999998
 20
-155.7146428928628
 30
0.0
  0
LINE
  5
104F
330
FE5
100
AcDbEntity
  8
0
100
AcDbLine
 10
-3.750000000000028
 20
-219.9999999999999
 30
0.0
 11
-1.250000000000004
 21
-219.9999999999999
 31
0.0
  0
LINE
  5
1050
330
FE5
100
AcDbEntity
  8
0
100
AcDbLine
 10
-1.250000000000012
 20
-205.0
 30
0.0
 11
-2.500000000000945
 21
-205.0
 31
0.0
  0
SPLINE
  5
1051
330
FE5
100
AcDbEntity
  8
0
100
AcDbSpline
210
0.0
220
0.0
230
1.0
 70
     8
 71
     3
 72
    10
 73
     6
 74
     0
 42
0.000000001
 43
0.0000000001
 40
0.0
 40
0.0
 40
0.0
 40
0.0
 40
0.0575824048770356
 40
0.0575824048770356
 40
0.0969870129533447
 40
0.0969870129533447
 40
0.0969870129533447
 40
0.0969870129533447
 10
-3.750000000000011
 20
-204.2853571071371
 30
0.0
 10
-3.589199486018064
 20
-204.3901649140296
 30
0.0
 10
-3.144309372970265
 20
-204.6556464676625
 30
0.0
 10
-2.08018338893487
 20
-204.9440616857528
 30
0.0
 10
-1.650237554444442
 20
-205.0000032568494
 30
0.0
 10
-1.250000000001867
 20
-205.0
 30
0.0
  0
SPLINE
  5
1052
330
FE5
100
AcDbEntity
  8
0
100
AcDbSpline
210
0.0
220
0.0
230
1.0
 70
     8
 71
     3
 72
    12
 73
     8
 74
     0
 42
0.000000001
 43
0.0000000001
 40
0.0
 40
0.0
 40
0.0
 40
0.0
 40
0.0483939315705765
 40
0.0483939315705765
 40
0.0973081656916049
 40
0.0973081656916049
 40
0.1727322110451277
 40
0.1727322110451277
 40
0.1727322110451277
 40
0.1727322110451277
 10
-2.50000000000094
 20
-205.0
 30
0.0
 10
-2.639701247034043
 20
-205.0000048834332
 30
0.0
 10
-2.784575237620943
 20
-204.9722351163767
 30
0.0
 10
-3.074424943866421
 20
-204.8651704316217
 30
0.0
 10
-3.214606868915218
 20
-204.7870554509227
 30
0.0
 10
-3.545328278107811
 20
-204.540358508144
 30
0.0
 10
-3.682883552998903
 20
-204.3730034822792
 30
0.0
 10
-3.750000000000004
 20
-204.2853571071371
 30
0.0
  0
ARC
  5
1053
330
FE5
100
AcDbEntity
  8
0
100
AcDbCircle
 10
-3.250000000000012
 20
-54.75
 30
0.0
 40
2.0
100
AcDbArc
 50
0.0
 51
90.00000000000005
  0
ARC
  5
1054
330
FE5
100
AcDbEntity
  8
0
100
AcDbCircle
 10
-3.250000000000012
 20
-35.25
 30
0.0
 40
2.0
100
AcDbArc
 50
270.0
 51
0.0
  0
ARC
  5
1055
330
FE5
100
AcDbEntity
  8
0
100
AcDbCircle
 10
-3.250000000000012
 20
-84.74999999999999
 30
0.0
 40
2.0
100
AcDbArc
 50
0.0
 51
90.00000000000005
  0
ARC
  5
1056
330
FE5
100
AcDbEntity
  8
0
100
AcDbCircle
 10
-3.250000000000012
 20
-65.25
 30
0.0
 40
2.0
100
AcDbArc
 50
270.0
 51
0.0
  0
ARC
  5
1057
330
FE5
100
AcDbEntity
  8
0
100
AcDbCircle
 10
-3.250000000000012
 20
-114.75
 30
0.0
 40
2.0
100
AcDbArc
 50
0.0
 51
90.00000000000005
  0
ARC
  5
1058
330
FE5
100
AcDbEntity
  8
0
100
AcDbCircle
 10
-3.250000000000012
 20
-95.25
 30
0.0
 40
2.0
100
AcDbArc
 50
270.0
 51
0.0
  0
ARC
  5
1059
330
FE5
100
AcDbEntity
  8
0
100
AcDbCircle
 10
-3.250000000000012
 20
-144.75
 30
0.0
 40
2.0
100
AcDbArc
 50
0.0
 51
90.00000000000005
  0
ARC
  5
105A
330
FE5
100
AcDbEntity
  8
0
100
AcDbCircle
 10
-3.250000000000012
 20
-125.25
 30
0.0
 40
2.0
100
AcDbArc
 50
270.0
 51
0.0
  0
ARC
  5
105B
330
FE5
100
AcDbEntity
  8
0
100
AcDbCircle
 10
-3.250000000000012
 20
-174.75
 30
0.0
 40
2.0
100
AcDbArc
 50
0.0
 51
90.00000000000005
  0
ARC
  5
105C
330
FE5
100
AcDbEntity
  8
0
100
AcDbCircle
 10
-3.250000000000012
 20
-155.25
 30
0.0
 40
2.0
100
AcDbArc
 50
270.0
 51
0.0
  0
ARC
  5
105D
330
FE5
100
AcDbEntity
  8
0
100
AcDbCircle
 10
-3.250000000000012
 20
-204.75
 30
0.0
 40
2.0
100
AcDbArc
 50
0.0
 51
90.00000000000005
  0
ARC
  5
105E
330
FE5
100
AcDbEntity
  8
0
100
AcDbCircle
 10
-3.250000000000012
 20
-185.25
 30
0.0
 40
2.0
100
AcDbArc
 50
270.0
 51
0.0
  0
ENDBLK
  5
FE7
330
FE5
100
AcDbEntity
  8
0
100
AcDbBlockEnd
  0
BLOCK
  5
1060
330
105F
100
AcDbEntity
  8
0
100
AcDbBlockBegin
  2
CBH220-Left
 70
     0
 10
0.0
 20
0.0
 30
0.0
  3
CBH220-Left
  1

  0
LINE
  5
1062
330
105F
100
AcDbEntity
  8
0
100
AcDbLine
 10
2.500000000000017
 20
-13.50000000000003
 30
0.0
 11
2.500000000000017
 21
-10.49999999999999
 31
0.0
  0
LINE
  5
1063
330
105F
100
AcDbEntity
  8
0
100
AcDbLine
 10
2.500000000000016
 20
-13.50000000000003
 30
0.0
 11
5.000000000000008
 21
-13.50000000000003
 31
0.0
  0
LINE
  5
1064
330
105F
100
AcDbEntity
  8
0
100
AcDbLine
 10
5.000000000000008
 20
-10.49999999999999
 30
0.0
 11
2.500000000000016
 21
-10.49999999999999
 31
0.0
  0
LINE
  5
1065
330
105F
100
AcDbEntity
  8
0
100
AcDbLine
 10
30.50000000000001
 20
-13.50000000000001
 30
0.0
 11
5.000000000000008
 21
-13.50000000000003
 31
0.0
  0
ARC
  5
1066
330
105F
100
AcDbEntity
  8
0
100
AcDbCircle
 10
30.50000000000001
 20
-12.00000000000001
 30
0.0
 40
1.499999999999994
100
AcDbArc
 50
270.0
 51
90.0
  0
LINE
  5
1067
330
105F
100
AcDbEntity
  8
0
100
AcDbLine
 10
5.00000000000001
 20
-10.49999999999999
 30
0.0
 11
30.5
 21
-10.49999999999999
 31
0.0
  0
LINE
  5
1068
330
105F
100
AcDbEntity
  8
0
100
AcDbLine
 10
0.0
 20
-216.0
 30
0.0
 11
0.0
 21
-220.0
 31
0.0
  0
LINE
  5
1069
330
105F
100
AcDbEntity
  8
0
100
AcDbLine
 10
0.0
 20
-220.0
 30
0.0
 11
2.500000000000001
 21
-220.0
 31
0.0
  0
LINE
  5
106A
330
105F
100
AcDbEntity
  8
0
100
AcDbLine
 10
2.500000000000001
 20
-220.0
 30
0.0
 11
2.499999999999993
 21
-216.0
 31
0.0
  0
LINE
  5
106B
330
105F
100
AcDbEntity
  8
0
100
AcDbLine
 10
2.499999999999993
 20
-216.0
 30
0.0
 11
0.0
 21
-216.0
 31
0.0
  0
LINE
  5
106C
330
105F
100
AcDbEntity
  8
0
100
AcDbLine
 10
0.0
 20
-116.5
 30
0.0
 11
2.499999999999975
 21
-116.5
 31
0.0
  0
LINE
  5
106D
330
105F
100
AcDbEntity
  8
0
100
AcDbLine
 10
2.499999999999975
 20
-116.5
 30
0.0
 11
2.499999999999981
 21
-112.5
 31
0.0
  0
LINE
  5
106E
330
105F
100
AcDbEntity
  8
0
100
AcDbLine
 10
0.0
 20
-112.5
 30
0.0
 11
0.0
 21
-116.5
 31
0.0
  0
LINE
  5
106F
330
105F
100
AcDbEntity
  8
0
100
AcDbLine
 10
2.499999999999981
 20
-112.5
 30
0.0
 11
0.0
 21
-112.5
 31
0.0
  0
LINE
  5
1070
330
105F
100
AcDbEntity
  8
0
100
AcDbLine
 10
113.4999999999986
 20
-216.0
 30
0.0
 11
109.4999999999986
 21
-220.0
 31
0.0
  0
LINE
  5
1071
330
105F
100
AcDbEntity
  8
0
100
AcDbLine
 10
109.5
 20
0.0
 30
0.0
 11
113.5
 21
-4.000000000000003
 31
0.0
  0
LINE
  5
1072
330
105F
100
AcDbEntity
  8
0
100
AcDbLine
 10
2.499999999999993
 20
-216.0
 30
0.0
 11
2.499999999999975
 21
-116.5
 31
0.0
  0
LINE
  5
1073
330
105F
100
AcDbEntity
  8
0
100
AcDbLine
 10
0.0
 20
-116.5
 30
0.0
 11
0.0
 21
-216.0
 31
0.0
  0
LINE
  5
1074
330
105F
100
AcDbEntity
  8
0
100
AcDbLine
 10
0.0
 20
-70.00000000000003
 30
0.0
 11
0.0
 21
-74.28535710713717
 31
0.0
  0
LINE
  5
1075
330
105F
100
AcDbEntity
  8
0
100
AcDbLine
 10
0.0
 20
-70.00000000000004
 30
0.0
 11
0.0
 21
-30.00000000000003
 31
0.0
  0
LINE
  5
1076
330
105F
100
AcDbEntity
  8
0
100
AcDbLine
 10
0.0
 20
-25.7146428928629
 30
0.0
 11
0.0
 21
-30.00000000000003
 31
0.0
  0
LINE
  5
1077
330
105F
100
AcDbEntity
  8
0
100
AcDbLine
 10
113.5
 20
-4.000000000000003
 30
0.0
 11
113.4999999999986
 21
-216.0
 31
0.0
  0
LINE
  5
1078
330
105F
100
AcDbEntity
  8
0
100
AcDbLine
 10
104.569851171331
 20
0.0
 30
0.0
 11
109.5
 21
0.0
 31
0.0
  0
LINE
  5
1079
330
105F
100
AcDbEntity
  8
0
100
AcDbLine
 10
102.75
 20
-5.0
 30
0.0
 11
104.569851171331
 21
0.0
 31
0.0
  0
LINE
  5
107A
330
105F
100
AcDbEntity
  8
0
100
AcDbLine
 10
102.75
 20
-10.25658350974744
 30
0.0
 11
102.75
 21
-5.0
 31
0.0
  0
ARC
  5
107B
330
105F
100
AcDbEntity
  8
0
100
AcDbCircle
 10
100.5
 20
-15.0
 30
0.0
 40
5.25
100
AcDbArc
 50
270.0
 51
64.62306647484749
  0
LINE
  5
107C
330
105F
100
AcDbEntity
  8
0
100
AcDbLine
 10
97.5
 20
-20.24999999999999
 30
0.0
 11
100.5
 21
-20.24999999999999
 31
0.0
  0
ARC
  5
107D
330
105F
100
AcDbEntity
  8
0
100
AcDbCircle
 10
97.5
 20
-15.0
 30
0.0
 40
5.25
100
AcDbArc
 50
180.0
 51
269.9999999999998
  0
LINE
  5
107E
330
105F
100
AcDbEntity
  8
0
100
AcDbLine
 10
92.24999999999999
 20
0.0
 30
0.0
 11
92.24999999999999
 21
-15.0
 31
0.0
  0
LINE
  5
107F
330
105F
100
AcDbEntity
  8
0
100
AcDbLine
 10
5.000000000000017
 20
0.0
 30
0.0
 11
92.24999999999999
 21
0.0
 31
0.0
  0
LINE
  5
1080
330
105F
100
AcDbEntity
  8
0
100
AcDbLine
 10
13.59999999999861
 20
-25.00000000000003
 30
0.0
 11
5.000000000000017
 21
-25.0
 31
0.0
  0
ARC
  5
1081
330
105F
100
AcDbEntity
  8
0
100
AcDbCircle
 10
13.59999999999861
 20
-50.00000000000003
 30
0.0
 40
25.0
100
AcDbArc
 50
270.0
 51
90.0
  0
LINE
  5
1082
330
105F
100
AcDbEntity
  8
0
100
AcDbLine
 10
5.000000000000017
 20
-75.00000000000003
 30
0.0
 11
13.59999999999861
 21
-75.00000000000003
 31
0.0
  0
LINE
  5
1083
330
105F
100
AcDbEntity
  8
0
100
AcDbLine
 10
5.499999999998586
 20
-107.5
 30
0.0
 11
5.000000000000017
 21
-107.5
 31
0.0
  0
ARC
  5
1084
330
105F
100
AcDbEntity
  8
0
100
AcDbCircle
 10
5.499999999998586
 20
-110.0
 30
0.0
 40
2.499999999999996
100
AcDbArc
 50
270.0
 51
90.0
  0
LINE
  5
1085
330
105F
100
AcDbEntity
  8
0
100
AcDbLine
 10
5.000000000000035
 20
-112.5
 30
0.0
 11
5.499999999998586
 21
-112.5
 31
0.0
  0
LINE
  5
1086
330
105F
100
AcDbEntity
  8
0
100
AcDbLine
 10
13.59999999999857
 20
-155.0
 30
0.0
 11
5.000000000000035
 21
-155.0
 31
0.0
  0
ARC
  5
1087
330
105F
100
AcDbEntity
  8
0
100
AcDbCircle
 10
13.59999999999857
 20
-180.0
 30
0.0
 40
25.0
100
AcDbArc
 50
270.0
 51
90.0
  0
LINE
  5
1088
330
105F
100
AcDbEntity
  8
0
100
AcDbLine
 10
5.000000000000035
 20
-205.0
 30
0.0
 11
13.59999999999859
 21
-205.0
 31
0.0
  0
LINE
  5
1089
330
105F
100
AcDbEntity
  8
0
100
AcDbLine
 10
109.4999999999986
 20
-220.0
 30
0.0
 11
5.000000000000035
 21
-220.0
 31
0.0
  0
LINE
  5
108A
330
105F
100
AcDbEntity
  8
0
100
AcDbLine
 10
2.500000000000018
 20
-30.00000000000003
 30
0.0
 11
2.500000000000019
 21
-25.7146428928629
 31
0.0
  0
LINE
  5
108B
330
105F
100
AcDbEntity
  8
0
100
AcDbLine
 10
0.0
 20
-30.00000000000007
 30
0.0
 11
2.500000000000009
 21
-30.00000000000007
 31
0.0
  0
LINE
  5
108C
330
105F
100
AcDbEntity
  8
0
100
AcDbLine
 10
2.500000000000009
 20
-30.00000000000003
 30
0.0
 11
2.500000000000013
 21
-70.00000000000004
 31
0.0
  0
LINE
  5
108D
330
105F
100
AcDbEntity
  8
0
100
AcDbLine
 10
0.0
 20
-70.00000000000003
 30
0.0
 11
2.500000000000012
 21
-70.00000000000003
 31
0.0
  0
LINE
  5
108E
330
105F
100
AcDbEntity
  8
0
100
AcDbLine
 10
2.500000000000023
 20
-74.28535710713717
 30
0.0
 11
2.500000000000022
 21
-70.00000000000003
 31
0.0
  0
LINE
  5
108F
330
105F
100
AcDbEntity
  8
0
100
AcDbLine
 10
0.0
 20
-107.5
 30
0.0
 11
0.0
 21
-74.28535710713717
 31
0.0
  0
LINE
  5
1090
330
105F
100
AcDbEntity
  8
0
100
AcDbLine
 10
0.0
 20
-25.7146428928629
 30
0.0
 11
0.0
 21
-16.00000000000003
 31
0.0
  0
LINE
  5
1091
330
105F
100
AcDbEntity
  8
0
100
AcDbLine
 10
0.0
 20
-7.999999999999989
 30
0.0
 11
0.0
 21
0.0
 31
0.0
  0
LINE
  5
1092
330
105F
100
AcDbEntity
  8
0
100
AcDbLine
 10
0.0
 20
0.0
 30
0.0
 11
5.000000000000018
 21
0.0
 31
0.0
  0
SPLINE
  5
1093
330
105F
100
AcDbEntity
  8
0
100
AcDbSpline
210
0.0
220
0.0
230
1.0
 70
     8
 71
     3
 72
    12
 73
     8
 74
     0
 42
0.000000001
 43
0.0000000001
 40
0.0
 40
0.0
 40
0.0
 40
0.0
 40
0.0483939315595173
 40
0.0483939315595173
 40
0.0973081656787435
 40
0.0973081656787435
 40
0.1727322110341026
 40
0.1727322110341026
 40
0.1727322110341026
 40
0.1727322110341026
 10
2.834936490538384
 20
-25.00000000000003
 30
0.0
 10
2.754279937976207
 20
-24.99999511656631
 30
0.0
 10
2.68888598679294
 20
-25.02776488361011
 30
0.0
 10
2.588072378016492
 20
-25.13482956834736
 30
0.0
 10
2.55444519888718
 20
-25.2129445490479
 30
0.0
 10
2.500111425961016
 20
-25.45964149184044
 30
0.0
 10
2.500000000000017
 20
-25.62699651772826
 30
0.0
 10
2.500000000000018
 20
-25.71464289286292
 30
0.0
  0
LINE
  5
1094
330
105F
100
AcDbEntity
  8
0
100
AcDbLine
 10
5.000000000000017
 20
-107.5000000000001
 30
0.0
 11
0.0
 21
-107.5000000000001
 31
0.0
  0
LINE
  5
1095
330
105F
100
AcDbEntity
  8
0
100
AcDbLine
 10
0.6698729810767396
 20
-75.00000000000003
 30
0.0
 11
5.000000000000017
 21
-75.00000000000003
 31
0.0
  0
SPLINE
  5
1096
330
105F
100
AcDbEntity
  8
0
100
AcDbSpline
210
0.0
220
0.0
230
1.0
 70
     8
 71
     3
 72
    10
 73
     6
 74
     0
 42
0.000000001
 43
0.0000000001
 40
0.0
 40
0.0
 40
0.0
 40
0.0
 40
0.1365716105029028
 40
0.1365716105029028
 40
0.3426352983143868
 40
0.3426352983143868
 40
0.3426352983143868
 40
0.3426352983143868
 10
0.6698729810767432
 20
-75.00000000000003
 30
0.0
 10
0.4422536302443949
 20
-75.00000320811267
 30
0.0
 10
0.2711135565677736
 20
-74.94568294175294
 30
0.0
 10
-0.0063721854845346
 20
-74.6606125140991
 30
0.0
 10
0.0000000000000214
 20
-74.39041218437893
 30
0.0
 10
0.0000000000000216
 20
-74.28535710713716
 30
0.0
  0
SPLINE
  5
1097
330
105F
100
AcDbEntity
  8
0
100
AcDbSpline
210
0.0
220
0.0
230
1.0
 70
     8
 71
     3
 72
    12
 73
     8
 74
     0
 42
0.000000001
 43
0.0000000001
 40
0.0
 40
0.0
 40
0.0
 40
0.0
 40
0.037320367660107
 40
0.037320367660107
 40
0.0541955352975671
 40
0.0541955352975671
 40
0.070089453016671
 40
0.070089453016671
 40
0.070089453016671
 40
0.070089453016671
 10
2.500000000000022
 20
-74.28535710713716
 30
0.0
 10
2.500000000000022
 20
-74.3841257396775
 30
0.0
 10
2.498255977978081
 20
-74.5995448445839
 30
0.0
 10
2.579336079331983
 20
-74.8429974664544
 30
0.0
 10
2.615116159469736
 20
-74.90267980818595
 30
0.0
 10
2.710479480038947
 20
-74.98054579697498
 30
0.0
 10
2.767475119537256
 20
-75.00000408451757
 30
0.0
 10
2.834936490538383
 20
-75.00000000000003
 30
0.0
  0
LINE
  5
1098
330
105F
100
AcDbEntity
  8
0
100
AcDbLine
 10
1.674298417746309
 20
-74.28535710713717
 30
0.0
 11
2.500000000000022
 21
-74.28535710713717
 31
0.0
  0
LINE
  5
1099
330
105F
100
AcDbEntity
  8
0
100
AcDbLine
 10
0.0
 20
-74.28535710713717
 30
0.0
 11
1.674298417746309
 21
-74.28535710713717
 31
0.0
  0
SPLINE
  5
109A
330
105F
100
AcDbEntity
  8
0
100
AcDbSpline
210
0.0
220
0.0
230
1.0
 70
     8
 71
     3
 72
    10
 73
     6
 74
     0
 42
0.000000001
 43
0.0000000001
 40
0.0
 40
0.0
 40
0.0
 40
0.0
 40
0.0575824048764707
 40
0.0575824048764707
 40
0.0969870129523929
 40
0.0969870129523929
 40
0.0969870129523929
 40
0.0969870129523929
 10
0.0000000000000194
 20
-25.71464289286292
 30
0.0
 10
0.0000000000000181
 20
-25.6098350859715
 30
0.0
 10
-0.005830202587946
 20
-25.34435353233734
 30
0.0
 10
0.2659924112196685
 20
-25.05593831424733
 30
0.0
 10
0.4387957212827037
 20
-24.99999674315031
 30
0.0
 10
0.6698729810767502
 20
-25.00000000000002
 30
0.0
  0
LINE
  5
109B
330
105F
100
AcDbEntity
  8
0
100
AcDbLine
 10
1.674298417750952
 20
-25.7146428928629
 30
0.0
 11
0.0
 21
-25.7146428928629
 31
0.0
  0
LINE
  5
109C
330
105F
100
AcDbEntity
  8
0
100
AcDbLine
 10
2.500000000000018
 20
-25.7146428928629
 30
0.0
 11
1.674298417750952
 21
-25.7146428928629
 31
0.0
  0
LINE
  5
109D
330
105F
100
AcDbEntity
  8
0
100
AcDbLine
 10
5.000000000000018
 20
-24.99999999999979
 30
0.0
 11
0.6698729810767512
 21
-24.99999999999979
 31
0.0
  0
LINE
  5
109E
330
105F
100
AcDbEntity
  8
0
100
AcDbLine
 10
0.0
 20
-8.000000000000015
 30
0.0
 11
0.0
 21
-16.0
 31
0.0
  0
LINE
  5
109F
330
105F
100
AcDbEntity
  8
0
100
AcDbLine
 10
69.74999999999991
 20
-24.49999999999999
 30
0.0
 11
69.75000000000005
 21
-195.5
 31
0.0
  0
ARC
  5
10A0
330
105F
100
AcDbEntity
  8
0
100
AcDbCircle
 10
68.25000000000002
 20
-195.5
 30
0.0
 40
1.499999999999994
100
AcDbArc
 50
180.0
 51
0.0
  0
LINE
  5
10A1
330
105F
100
AcDbEntity
  8
0
100
AcDbLine
 10
66.75000000000008
 20
-195.5
 30
0.0
 11
66.75000000000008
 21
-24.49999999999999
 31
0.0
  0
ARC
  5
10A2
330
105F
100
AcDbEntity
  8
0
100
AcDbCircle
 10
68.25000000000002
 20
-24.49999999999999
 30
0.0
 40
1.499999999999994
100
AcDbArc
 50
0.0
 51
180.0
  0
ARC
  5
10A3
330
105F
100
AcDbEntity
  8
0
100
AcDbCircle
 10
2.500000000000018
 20
-16.00000000000003
 30
0.0
 40
2.5
100
AcDbArc
 50
90.0
 51
180.0
  0
ARC
  5
10A4
330
105F
100
AcDbEntity
  8
0
100
AcDbCircle
 10
2.500000000000017
 20
-7.999999999999989
 30
0.0
 40
2.5
100
AcDbArc
 50
180.0
 51
270.0
  0
CIRCLE
  5
10A5
330
105F
100
AcDbEntity
  8
0
100
AcDbCircle
 10
97.50000000000001
 20
-45.0
 30
0.0
 40
5.249999999999999
  0
CIRCLE
  5
10A6
330
105F
100
AcDbEntity
  8
0
100
AcDbCircle
 10
97.50000000000001
 20
-45.0
 30
0.0
 40
7.749999999999995
  0
CIRCLE
  5
10A7
330
105F
100
AcDbEntity
  8
0
100
AcDbCircle
 10
97.50000000000001
 20
-75.0
 30
0.0
 40
5.249999999999999
  0
CIRCLE
  5
10A8
330
105F
100
AcDbEntity
  8
0
100
AcDbCircle
 10
97.50000000000001
 20
-75.0
 30
0.0
 40
7.749999999999995
  0
CIRCLE
  5
10A9
330
105F
100
AcDbEntity
  8
0
100
AcDbCircle
 10
97.50000000000001
 20
-105.0
 30
0.0
 40
5.249999999999999
  0
CIRCLE
  5
10AA
330
105F
100
AcDbEntity
  8
0
100
AcDbCircle
 10
97.50000000000001
 20
-105.0
 30
0.0
 40
7.749999999999995
  0
CIRCLE
  5
10AB
330
105F
100
AcDbEntity
  8
0
100
AcDbCircle
 10
97.50000000000001
 20
-135.0
 30
0.0
 40
5.249999999999999
  0
CIRCLE
  5
10AC
330
105F
100
AcDbEntity
  8
0
100
AcDbCircle
 10
97.50000000000001
 20
-135.0
 30
0.0
 40
7.749999999999995
  0
CIRCLE
  5
10AD
330
105F
100
AcDbEntity
  8
0
100
AcDbCircle
 10
97.50000000000001
 20
-165.0
 30
0.0
 40
5.249999999999999
  0
CIRCLE
  5
10AE
330
105F
100
AcDbEntity
  8
0
100
AcDbCircle
 10
97.50000000000001
 20
-165.0
 30
0.0
 40
7.749999999999995
  0
CIRCLE
  5
10AF
330
105F
100
AcDbEntity
  8
0
100
AcDbCircle
 10
97.50000000000001
 20
-195.0
 30
0.0
 40
5.249999999999999
  0
CIRCLE
  5
10B0
330
105F
100
AcDbEntity
  8
0
100
AcDbCircle
 10
97.50000000000001
 20
-195.0
 30
0.0
 40
7.749999999999995
  0
LINE
  5
10B1
330
105F
100
AcDbEntity
  8
0
100
AcDbLine
 10
2.834936490538389
 20
-155.0
 30
0.0
 11
5.000000000000037
 21
-155.0
 31
0.0
  0
LINE
  5
10B2
330
105F
100
AcDbEntity
  8
0
100
AcDbLine
 10
5.000000000000035
 20
-112.5
 30
0.0
 11
2.500000000000018
 21
-112.5
 31
0.0
  0
SPLINE
  5
10B3
330
105F
100
AcDbEntity
  8
0
100
AcDbSpline
210
0.0
220
0.0
230
1.0
 70
     8
 71
     3
 72
    12
 73
     8
 74
     0
 42
0.000000001
 43
0.0000000001
 40
0.0
 40
0.0
 40
0.0
 40
0.0
 40
0.0373203676622203
 40
0.0373203676622203
 40
0.0541955353009024
 40
0.0541955353009024
 40
0.0700894530209943
 40
0.0700894530209943
 40
0.0700894530209943
 40
0.0700894530209943
 10
2.500000000000026
 20
-155.7146428928628
 30
0.0
 10
2.500000000000026
 20
-155.6158742603169
 30
0.0
 10
2.498255977978677
 20
-155.4004551554147
 30
0.0
 10
2.579336079331988
 20
-155.1570025335454
 30
0.0
 10
2.615116159469498
 20
-155.0973201918143
 30
0.0
 10
2.710479480038549
 20
-155.0194542030253
 30
0.0
 10
2.76747511953611
 20
-154.9999959154826
 30
0.0
 10
2.834936490538388
 20
-155.0
 30
0.0
  0
LINE
  5
10B4
330
105F
100
AcDbEntity
  8
0
100
AcDbLine
 10
2.500000000000031
 20
-219.9999999999999
 30
0.0
 11
5.000000000000035
 21
-219.9999999999999
 31
0.0
  0
LINE
  5
10B5
330
105F
100
AcDbEntity
  8
0
100
AcDbLine
 10
5.000000000000036
 20
-205.0
 30
0.0
 11
2.8349364905384
 21
-205.0
 31
0.0
  0
SPLINE
  5
10B6
330
105F
100
AcDbEntity
  8
0
100
AcDbSpline
210
0.0
220
0.0
230
1.0
 70
     8
 71
     3
 72
    12
 73
     8
 74
     0
 42
0.000000001
 43
0.0000000001
 40
0.0
 40
0.0
 40
0.0
 40
0.0
 40
0.0483939315705765
 40
0.0483939315705765
 40
0.0973081656916049
 40
0.0973081656916049
 40
0.1727322110451277
 40
0.1727322110451277
 40
0.1727322110451277
 40
0.1727322110451277
 10
2.834936490538399
 20
-205.0
 30
0.0
 10
2.75427993795779
 20
-205.0000048834332
 30
0.0
 10
2.688885986767297
 20
-204.9722351163767
 30
0.0
 10
2.588072378000767
 20
-204.8651704316217
 30
0.0
 10
2.554445198877616
 20
-204.7870554509227
 30
0.0
 10
2.500111425962383
 20
-204.540358508144
 30
0.0
 10
2.500000000000031
 20
-204.3730034822792
 30
0.0
 10
2.50000000000003
 20
-204.2853571071371
 30
0.0
  0
ENDBLK
  5
1061
330
105F
100
AcDbEntity
  8
0
100
AcDbBlockEnd
  0
BLOCK
  5
10B8
330
10B7
100
AcDbEntity
  8
0
100
AcDbBlockBegin
  2
CBH220-Right
 70
     0
 10
0.0
 20
0.0
 30
0.0
  3
CBH220-Right
  1

  0
LINE
  5
10BA
330
10B7
100
AcDbEntity
  8
0
100
AcDbLine
 10
-2.500000000000017
 20
-16.00000000000001
 30
0.0
 11
-5.000000000000009
 21
-16.00000000000001
 31
0.0
  0
LINE
  5
10BB
330
10B7
100
AcDbEntity
  8
0
100
AcDbLine
 10
-5.00000000000001
 20
-8.000000000000007
 30
0.0
 11
-2.500000000000016
 21
-8.000000000000007
 31
0.0
  0
LINE
  5
10BC
330
10B7
100
AcDbEntity
  8
0
100
AcDbLine
 10
-2.500000000000016
 20
0.0
 30
0.0
 11
-5.000000000000017
 21
0.0
 31
0.0
  0
LINE
  5
10BD
330
10B7
100
AcDbEntity
  8
0
100
AcDbLine
 10
-5.000000000000018
 20
-25.00000000000003
 30
0.0
 11
-2.834936490538385
 21
-25.00000000000003
 31
0.0
  0
SPLINE
  5
10BE
330
10B7
100
AcDbEntity
  8
0
100
AcDbSpline
210
0.0
220
0.0
230
1.0
 70
     8
 71
     3
 72
    12
 73
     8
 74
     0
 42
0.000000001
 43
0.0000000001
 40
0.0
 40
0.0
 40
0.0
 40
0.0
 40
0.0483939315595173
 40
0.0483939315595173
 40
0.0973081656787435
 40
0.0973081656787435
 40
0.1727322110341026
 40
0.1727322110341026
 40
0.1727322110341026
 40
0.1727322110341026
 10
-2.834936490538384
 20
-25.00000000000003
 30
0.0
 10
-2.754279937976207
 20
-24.99999511656631
 30
0.0
 10
-2.68888598679294
 20
-25.02776488361011
 30
0.0
 10
-2.588072378016492
 20
-25.13482956834736
 30
0.0
 10
-2.55444519888718
 20
-25.2129445490479
 30
0.0
 10
-2.500111425961016
 20
-25.45964149184044
 30
0.0
 10
-2.500000000000017
 20
-25.62699651772826
 30
0.0
 10
-2.500000000000018
 20
-25.71464289286292
 30
0.0
  0
LINE
  5
10BF
330
10B7
100
AcDbEntity
  8
0
100
AcDbLine
 10
-5.000000000000017
 20
-107.5
 30
0.0
 11
-2.500000000000025
 21
-107.5
 31
0.0
  0
SPLINE
  5
10C0
330
10B7
100
AcDbEntity
  8
0
100
AcDbSpline
210
0.0
220
0.0
230
1.0
 70
     8
 71
     3
 72
    12
 73
     8
 74
     0
 42
0.000000001
 43
0.0000000001
 40
0.0
 40
0.0
 40
0.0
 40
0.0
 40
0.037320367660107
 40
0.037320367660107
 40
0.0541955352975671
 40
0.0541955352975671
 40
0.070089453016671
 40
0.070089453016671
 40
0.070089453016671
 40
0.070089453016671
 10
-2.500000000000022
 20
-74.28535710713716
 30
0.0
 10
-2.500000000000022
 20
-74.3841257396775
 30
0.0
 10
-2.498255977978081
 20
-74.5995448445839
 30
0.0
 10
-2.579336079331983
 20
-74.8429974664544
 30
0.0
 10
-2.615116159469736
 20
-74.90267980818595
 30
0.0
 10
-2.710479480038947
 20
-74.98054579697498
 30
0.0
 10
-2.767475119537256
 20
-75.00000408451757
 30
0.0
 10
-2.834936490538383
 20
-75.00000000000003
 30
0.0
  0
LINE
  5
10C1
330
10B7
100
AcDbEntity
  8
0
100
AcDbLine
 10
-2.83493649053838
 20
-75.00000000000003
 30
0.0
 11
-5.000000000000017
 21
-75.00000000000003
 31
0.0
  0
ARC
  5
10C2
330
10B7
100
AcDbEntity
  8
0
100
AcDbCircle
 10
-2.500000000000023
 20
-10.5
 30
0.0
 40
2.5
100
AcDbArc
 50
89.99999999999998
 51
180.0
  0
LINE
  5
10C3
330
10B7
100
AcDbEntity
  8
0
100
AcDbLine
 10
-5.00000000000001
 20
-16.00000000000001
 30
0.0
 11
-30.5
 21
-15.99999999999999
 31
0.0
  0
ARC
  5
10C4
330
10B7
100
AcDbEntity
  8
0
100
AcDbCircle
 10
-30.50000000000001
 20
-12.00000000000001
 30
0.0
 40
4.0
100
AcDbArc
 50
90.0
 51
270.0
  0
LINE
  5
10C5
330
10B7
100
AcDbEntity
  8
0
100
AcDbLine
 10
-30.50000000000001
 20
-7.999999999999989
 30
0.0
 11
-5.000000000000013
 21
-8.000000000000007
 31
0.0
  0
LINE
  5
10C6
330
10B7
100
AcDbEntity
  8
0
100
AcDbLine
 10
-72.25
 20
-195.5
 30
0.0
 11
-72.24999999999988
 21
-24.49999999999999
 31
0.0
  0
ARC
  5
10C7
330
10B7
100
AcDbEntity
  8
0
100
AcDbCircle
 10
-68.25000000000002
 20
-24.49999999999999
 30
0.0
 40
4.0
100
AcDbArc
 50
0.0
 51
180.0
  0
LINE
  5
10C8
330
10B7
100
AcDbEntity
  8
0
100
AcDbLine
 10
-64.25000000000013
 20
-24.49999999999999
 30
0.0
 11
-64.25000000000013
 21
-195.5
 31
0.0
  0
ARC
  5
10C9
330
10B7
100
AcDbEntity
  8
0
100
AcDbCircle
 10
-68.25000000000002
 20
-195.5
 30
0.0
 40
4.0
100
AcDbArc
 50
180.0
 51
0.0
  0
ARC
  5
10CA
330
10B7
100
AcDbEntity
  8
0
100
AcDbCircle
 10
-2.500000000000023
 20
-13.50000000000001
 30
0.0
 40
2.5
100
AcDbArc
 50
180.0
 51
270.0
  0
LINE
  5
10CB
330
10B7
100
AcDbEntity
  8
0
100
AcDbLine
 10
-5.000000000000022
 20
-13.50000000000001
 30
0.0
 11
-5.000000000000022
 21
-10.50000000000001
 31
0.0
  0
LINE
  5
10CC
330
10B7
100
AcDbEntity
  8
0
100
AcDbLine
 10
-2.500000000000039
 20
-200.0
 30
0.0
 11
-2.500000000000037
 21
-204.2853571071371
 31
0.0
  0
LINE
  5
10CD
330
10B7
100
AcDbEntity
  8
0
100
AcDbLine
 10
-2.500000000000058
 20
-200.0
 30
0.0
 11
-2.500000000000051
 21
-160.0
 31
0.0
  0
LINE
  5
10CE
330
10B7
100
AcDbEntity
  8
0
100
AcDbLine
 10
-2.500000000000027
 20
-155.7146428928628
 30
0.0
 11
-2.500000000000031
 21
-160.0
 31
0.0
  0
LINE
  5
10CF
330
10B7
100
AcDbEntity
  8
0
100
AcDbLine
 10
0.0
 20
-103.5
 30
0.0
 11
0.0
 21
-4.000000000000003
 31
0.0
  0
LINE
  5
10D0
330
10B7
100
AcDbEntity
  8
0
100
AcDbLine
 10
-2.500000000000035
 20
-4.000000000000003
 30
0.0
 11
-2.500000000000044
 21
-103.5
 31
0.0
  0
LINE
  5
10D1
330
10B7
100
AcDbEntity
  8
0
100
AcDbLine
 10
-113.4999999999986
 20
-216.0
 30
0.0
 11
-113.5
 21
-3.999999999999985
 31
0.0
  0
LINE
  5
10D2
330
10B7
100
AcDbEntity
  8
0
100
AcDbLine
 10
-5.000000000000035
 20
-220.0
 30
0.0
 11
-109.4999999999986
 21
-220.0
 31
0.0
  0
LINE
  5
10D3
330
10B7
100
AcDbEntity
  8
0
100
AcDbLine
 10
-13.59999999999859
 20
-205.0
 30
0.0
 11
-5.000000000000035
 21
-205.0
 31
0.0
  0
ARC
  5
10D4
330
10B7
100
AcDbEntity
  8
0
100
AcDbCircle
 10
-13.59999999999857
 20
-180.0
 30
0.0
 40
25.0
100
AcDbArc
 50
89.99999999999998
 51
269.9999999999999
  0
LINE
  5
10D5
330
10B7
100
AcDbEntity
  8
0
100
AcDbLine
 10
-5.000000000000035
 20
-155.0
 30
0.0
 11
-13.59999999999857
 21
-155.0
 31
0.0
  0
LINE
  5
10D6
330
10B7
100
AcDbEntity
  8
0
100
AcDbLine
 10
-5.499999999998586
 20
-112.5
 30
0.0
 11
-5.000000000000035
 21
-112.5
 31
0.0
  0
ARC
  5
10D7
330
10B7
100
AcDbEntity
  8
0
100
AcDbCircle
 10
-5.499999999998586
 20
-110.0
 30
0.0
 40
2.499999999999996
100
AcDbArc
 50
90.0
 51
270.0
  0
LINE
  5
10D8
330
10B7
100
AcDbEntity
  8
0
100
AcDbLine
 10
-5.000000000000017
 20
-107.5
 30
0.0
 11
-5.499999999998586
 21
-107.5
 31
0.0
  0
LINE
  5
10D9
330
10B7
100
AcDbEntity
  8
0
100
AcDbLine
 10
-13.59999999999861
 20
-75.00000000000003
 30
0.0
 11
-5.000000000000017
 21
-75.00000000000003
 31
0.0
  0
ARC
  5
10DA
330
10B7
100
AcDbEntity
  8
0
100
AcDbCircle
 10
-13.59999999999861
 20
-50.00000000000003
 30
0.0
 40
25.0
100
AcDbArc
 50
90.00000000000003
 51
270.0
  0
LINE
  5
10DB
330
10B7
100
AcDbEntity
  8
0
100
AcDbLine
 10
-5.000000000000017
 20
-25.0
 30
0.0
 11
-13.59999999999861
 21
-25.00000000000003
 31
0.0
  0
LINE
  5
10DC
330
10B7
100
AcDbEntity
  8
0
100
AcDbLine
 10
-92.24999999999999
 20
0.0
 30
0.0
 11
-5.000000000000017
 21
0.0
 31
0.0
  0
LINE
  5
10DD
330
10B7
100
AcDbEntity
  8
0
100
AcDbLine
 10
-92.24999999999999
 20
-15.0
 30
0.0
 11
-92.24999999999999
 21
0.0
 31
0.0
  0
ARC
  5
10DE
330
10B7
100
AcDbEntity
  8
0
100
AcDbCircle
 10
-97.5
 20
-15.0
 30
0.0
 40
5.25
100
AcDbArc
 50
270.0000000000002
 51
0.0
  0
LINE
  5
10DF
330
10B7
100
AcDbEntity
  8
0
100
AcDbLine
 10
-100.5
 20
-20.24999999999999
 30
0.0
 11
-97.5
 21
-20.24999999999999
 31
0.0
  0
ARC
  5
10E0
330
10B7
100
AcDbEntity
  8
0
100
AcDbCircle
 10
-100.5
 20
-15.0
 30
0.0
 40
5.25
100
AcDbArc
 50
115.3769335251525
 51
270.0
  0
LINE
  5
10E1
330
10B7
100
AcDbEntity
  8
0
100
AcDbLine
 10
-102.75
 20
-5.0
 30
0.0
 11
-102.75
 21
-10.25658350974744
 31
0.0
  0
LINE
  5
10E2
330
10B7
100
AcDbEntity
  8
0
100
AcDbLine
 10
-104.569851171331
 20
0.0
 30
0.0
 11
-102.75
 21
-5.0
 31
0.0
  0
LINE
  5
10E3
330
10B7
100
AcDbEntity
  8
0
100
AcDbLine
 10
-109.5
 20
0.0
 30
0.0
 11
-104.569851171331
 21
0.0
 31
0.0
  0
LINE
  5
10E4
330
10B7
100
AcDbEntity
  8
0
100
AcDbLine
 10
0.0
 20
-160.0
 30
0.0
 11
0.0
 21
-155.7146428928628
 31
0.0
  0
LINE
  5
10E5
330
10B7
100
AcDbEntity
  8
0
100
AcDbLine
 10
-2.500000000000051
 20
-160.0
 30
0.0
 11
0.0
 21
-160.0
 31
0.0
  0
LINE
  5
10E6
330
10B7
100
AcDbEntity
  8
0
100
AcDbLine
 10
0.0
 20
-160.0
 30
0.0
 11
0.0
 21
-200.0
 31
0.0
  0
LINE
  5
10E7
330
10B7
100
AcDbEntity
  8
0
100
AcDbLine
 10
-2.500000000000059
 20
-200.0
 30
0.0
 11
0.0
 21
-200.0
 31
0.0
  0
LINE
  5
10E8
330
10B7
100
AcDbEntity
  8
0
100
AcDbLine
 10
0.0
 20
-204.2853571071371
 30
0.0
 11
0.0
 21
-200.0
 31
0.0
  0
LINE
  5
10E9
330
10B7
100
AcDbEntity
  8
0
100
AcDbLine
 10
-2.500000000000044
 20
-103.5
 30
0.0
 11
-2.500000000000041
 21
-107.5
 31
0.0
  0
LINE
  5
10EA
330
10B7
100
AcDbEntity
  8
0
100
AcDbLine
 10
-2.500000000000041
 20
-107.5
 30
0.0
 11
0.0
 21
-107.5
 31
0.0
  0
LINE
  5
10EB
330
10B7
100
AcDbEntity
  8
0
100
AcDbLine
 10
0.0
 20
-107.5
 30
0.0
 11
0.0
 21
-103.5
 31
0.0
  0
LINE
  5
10EC
330
10B7
100
AcDbEntity
  8
0
100
AcDbLine
 10
0.0
 20
-103.5
 30
0.0
 11
-2.500000000000044
 21
-103.5
 31
0.0
  0
LINE
  5
10ED
330
10B7
100
AcDbEntity
  8
0
100
AcDbLine
 10
-2.500000000000035
 20
-4.000000000000003
 30
0.0
 11
0.0
 21
-4.000000000000003
 31
0.0
  0
LINE
  5
10EE
330
10B7
100
AcDbEntity
  8
0
100
AcDbLine
 10
0.0
 20
-4.000000000000003
 30
0.0
 11
0.0
 21
0.0
 31
0.0
  0
LINE
  5
10EF
330
10B7
100
AcDbEntity
  8
0
100
AcDbLine
 10
-109.4999999999986
 20
-220.0
 30
0.0
 11
-113.4999999999986
 21
-216.0
 31
0.0
  0
LINE
  5
10F0
330
10B7
100
AcDbEntity
  8
0
100
AcDbLine
 10
-113.5
 20
-4.000000000000003
 30
0.0
 11
-109.5
 21
0.0
 31
0.0
  0
LINE
  5
10F1
330
10B7
100
AcDbEntity
  8
0
100
AcDbLine
 10
-2.500000000000031
 20
0.0
 30
0.0
 11
-2.500000000000035
 21
-4.000000000000003
 31
0.0
  0
LINE
  5
10F2
330
10B7
100
AcDbEntity
  8
0
100
AcDbLine
 10
0.0
 20
0.0
 30
0.0
 11
-2.500000000000031
 21
0.0
 31
0.0
  0
CIRCLE
  5
10F3
330
10B7
100
AcDbEntity
  8
0
100
AcDbCircle
 10
-97.50000000000001
 20
-45.0
 30
0.0
 40
5.249999999999999
  0
CIRCLE
  5
10F4
330
10B7
100
AcDbEntity
  8
0
100
AcDbCircle
 10
-97.50000000000001
 20
-75.0
 30
0.0
 40
5.249999999999999
  0
CIRCLE
  5
10F5
330
10B7
100
AcDbEntity
  8
0
100
AcDbCircle
 10
-97.50000000000001
 20
-105.0
 30
0.0
 40
5.249999999999999
  0
CIRCLE
  5
10F6
330
10B7
100
AcDbEntity
  8
0
100
AcDbCircle
 10
-97.50000000000001
 20
-135.0
 30
0.0
 40
5.249999999999999
  0
CIRCLE
  5
10F7
330
10B7
100
AcDbEntity
  8
0
100
AcDbCircle
 10
-97.50000000000001
 20
-165.0
 30
0.0
 40
5.249999999999999
  0
CIRCLE
  5
10F8
330
10B7
100
AcDbEntity
  8
0
100
AcDbCircle
 10
-97.50000000000001
 20
-195.0
 30
0.0
 40
5.249999999999999
  0
SPLINE
  5
10F9
330
10B7
100
AcDbEntity
  8
0
100
AcDbSpline
210
0.0
220
0.0
230
1.0
 70
     8
 71
     3
 72
    12
 73
     8
 74
     0
 42
0.000000001
 43
0.0000000001
 40
0.0
 40
0.0
 40
0.0
 40
0.0
 40
0.0373203676622203
 40
0.0373203676622203
 40
0.0541955353009024
 40
0.0541955353009024
 40
0.0700894530209943
 40
0.0700894530209943
 40
0.0700894530209943
 40
0.0700894530209943
 10
-2.500000000000026
 20
-155.7146428928628
 30
0.0
 10
-2.500000000000026
 20
-155.6158742603169
 30
0.0
 10
-2.498255977978677
 20
-155.4004551554147
 30
0.0
 10
-2.579336079331988
 20
-155.1570025335454
 30
0.0
 10
-2.615116159469498
 20
-155.0973201918143
 30
0.0
 10
-2.710479480038549
 20
-155.0194542030253
 30
0.0
 10
-2.76747511953611
 20
-154.9999959154826
 30
0.0
 10
-2.834936490538388
 20
-155.0
 30
0.0
  0
SPLINE
  5
10FA
330
10B7
100
AcDbEntity
  8
0
100
AcDbSpline
210
0.0
220
0.0
230
1.0
 70
     8
 71
     3
 72
    10
 73
     6
 74
     0
 42
0.000000001
 43
0.0000000001
 40
0.0
 40
0.0
 40
0.0
 40
0.0
 40
0.1365716105051353
 40
0.1365716105051353
 40
0.3426352983179537
 40
0.3426352983179537
 40
0.3426352983179537
 40
0.3426352983179537
 10
-0.6698729810767518
 20
-155.0
 30
0.0
 10
-0.4422536302406822
 20
-154.9999967918876
 30
0.0
 10
-0.2711135565679958
 20
-155.0543170582469
 30
0.0
 10
0.0063721854831981
 20
-155.3393874858995
 30
0.0
 10
-0.0000000000000272
 20
-155.6095878156128
 30
0.0
 10
-0.0000000000000267
 20
-155.7146428928628
 30
0.0
  0
LINE
  5
10FB
330
10B7
100
AcDbEntity
  8
0
100
AcDbLine
 10
0.0
 20
-112.5
 30
0.0
 11
0.0
 21
-155.7146428928628
 31
0.0
  0
LINE
  5
10FC
330
10B7
100
AcDbEntity
  8
0
100
AcDbLine
 10
-5.000000000000036
 20
-112.5
 30
0.0
 11
0.0
 21
-112.5
 31
0.0
  0
LINE
  5
10FD
330
10B7
100
AcDbEntity
  8
0
100
AcDbLine
 10
-0.6698729810767512
 20
-155.0
 30
0.0
 11
-5.000000000000036
 21
-155.0
 31
0.0
  0
LINE
  5
10FE
330
10B7
100
AcDbEntity
  8
0
100
AcDbLine
 10
-1.674298417746707
 20
-155.7146428928628
 30
0.0
 11
-2.500000000000028
 21
-155.7146428928628
 31
0.0
  0
LINE
  5
10FF
330
10B7
100
AcDbEntity
  8
0
100
AcDbLine
 10
0.0
 20
-155.7146428928628
 30
0.0
 11
-1.674298417746707
 21
-155.7146428928628
 31
0.0
  0
LINE
  5
1100
330
10B7
100
AcDbEntity
  8
0
100
AcDbLine
 10
0.0
 20
-220.0
 30
0.0
 11
-5.000000000000035
 21
-220.0
 31
0.0
  0
LINE
  5
1101
330
10B7
100
AcDbEntity
  8
0
100
AcDbLine
 10
-5.000000000000035
 20
-205.0
 30
0.0
 11
-0.6698729810767734
 21
-205.0
 31
0.0
  0
SPLINE
  5
1102
330
10B7
100
AcDbEntity
  8
0
100
AcDbSpline
210
0.0
220
0.0
230
1.0
 70
     8
 71
     3
 72
    10
 73
     6
 74
     0
 42
0.000000001
 43
0.0000000001
 40
0.0
 40
0.0
 40
0.0
 40
0.0
 40
0.0575824048770356
 40
0.0575824048770356
 40
0.0969870129533447
 40
0.0969870129533447
 40
0.0969870129533447
 40
0.0969870129533447
 10
-0.0000000000000317
 20
-204.2853571071371
 30
0.0
 10
-0.0000000000000319
 20
-204.3901649140296
 30
0.0
 10
0.005830202587969
 20
-204.6556464676625
 30
0.0
 10
-0.2659924112197273
 20
-204.9440616857528
 30
0.0
 10
-0.4387957212797775
 20
-205.0000032568494
 30
0.0
 10
-0.669872981076767
 20
-205.0
 30
0.0
  0
LINE
  5
1103
330
10B7
100
AcDbEntity
  8
0
100
AcDbLine
 10
-1.674298417737848
 20
-204.2853571071371
 30
0.0
 11
0.0
 21
-204.2853571071371
 31
0.0
  0
LINE
  5
1104
330
10B7
100
AcDbEntity
  8
0
100
AcDbLine
 10
-2.500000000000036
 20
-204.2853571071371
 30
0.0
 11
-1.674298417737848
 21
-204.2853571071371
 31
0.0
  0
SPLINE
  5
1105
330
10B7
100
AcDbEntity
  8
0
100
AcDbSpline
210
0.0
220
0.0
230
1.0
 70
     8
 71
     3
 72
    12
 73
     8
 74
     0
 42
0.000000001
 43
0.0000000001
 40
0.0
 40
0.0
 40
0.0
 40
0.0
 40
0.0483939315705765
 40
0.0483939315705765
 40
0.0973081656916049
 40
0.0973081656916049
 40
0.1727322110451277
 40
0.1727322110451277
 40
0.1727322110451277
 40
0.1727322110451277
 10
-2.834936490538399
 20
-205.0
 30
0.0
 10
-2.75427993795779
 20
-205.0000048834332
 30
0.0
 10
-2.688885986767297
 20
-204.9722351163767
 30
0.0
 10
-2.588072378000767
 20
-204.8651704316217
 30
0.0
 10
-2.554445198877616
 20
-204.7870554509227
 30
0.0
 10
-2.500111425962383
 20
-204.540358508144
 30
0.0
 10
-2.500000000000031
 20
-204.3730034822792
 30
0.0
 10
-2.50000000000003
 20
-204.2853571071371
 30
0.0
  0
LINE
  5
1106
330
10B7
100
AcDbEntity
  8
0
100
AcDbLine
 10
0.0
 20
-204.2853571071371
 30
0.0
 11
0.0
 21
-220.0
 31
0.0
  0
ENDBLK
  5
10B9
330
10B7
100
AcDbEntity
  8
0
100
AcDbBlockEnd
  0
BLOCK
  5
1108
330
1107
100
AcDbEntity
  8
0
100
AcDbBlockBegin
  2
CBH220-Top
 70
     0
 10
0.0
 20
0.0
 30
0.0
  3
CBH220-Top
  1

  0
LINE
  5
110A
330
1107
100
AcDbEntity
  8
0
100
AcDbLine
 10
3.749999999999988
 20
-5.000000000000016
 30
0.0
 11
7.999999999999996
 21
-5.000000000000022
 31
0.0
  0
LINE
  5
110B
330
1107
100
AcDbEntity
  8
0
100
AcDbLine
 10
9.499999999999998
 20
-5.000000000000024
 30
0.0
 11
7.999999999999996
 21
-5.000000000000022
 31
0.0
  0
LINE
  5
110C
330
1107
100
AcDbEntity
  8
0
100
AcDbLine
 10
3.749999999999987
 20
-30.50000000000001
 30
0.0
 11
3.749999999999987
 21
-32.0
 31
0.0
  0
LINE
  5
110D
330
1107
100
AcDbEntity
  8
0
100
AcDbLine
 10
3.749999999999987
 20
-30.50000000000001
 30
0.0
 11
3.749999999999988
 21
-5.000000000000017
 31
0.0
  0
LINE
  5
110E
330
1107
100
AcDbEntity
  8
0
100
AcDbLine
 10
30.00000000000143
 20
-2.500000000000035
 30
0.0
 11
30.00000000000143
 21
0.0
 31
0.0
  0
LINE
  5
110F
330
1107
100
AcDbEntity
  8
0
100
AcDbLine
 10
30.00000000000143
 20
0.0
 30
0.0
 11
26.00000000000143
 21
0.0
 31
0.0
  0
LINE
  5
1110
330
1107
100
AcDbEntity
  8
0
100
AcDbLine
 10
-1.250000000000012
 20
-109.5
 30
0.0
 11
-1.250000000000012
 21
-113.5
 31
0.0
  0
LINE
  5
1111
330
1107
100
AcDbEntity
  8
0
100
AcDbLine
 10
-1.250000000000012
 20
-113.5
 30
0.0
 11
1.249999999999987
 21
-113.5
 31
0.0
  0
LINE
  5
1112
330
1107
100
AcDbEntity
  8
0
100
AcDbLine
 10
1.249999999999987
 20
-113.5
 30
0.0
 11
1.249999999999987
 21
-109.5
 31
0.0
  0
LINE
  5
1113
330
1107
100
AcDbEntity
  8
0
100
AcDbLine
 10
1.249999999999987
 20
-109.5
 30
0.0
 11
-1.250000000000012
 21
-109.5
 31
0.0
  0
LINE
  5
1114
330
1107
100
AcDbEntity
  8
0
100
AcDbLine
 10
26.00000000000143
 20
-2.500000000000032
 30
0.0
 11
30.00000000000143
 21
-2.500000000000035
 31
0.0
  0
LINE
  5
1115
330
1107
100
AcDbEntity
  8
0
100
AcDbLine
 10
26.00000000000143
 20
0.0
 30
0.0
 11
26.00000000000143
 21
-2.500000000000031
 31
0.0
  0
LINE
  5
1116
330
1107
100
AcDbEntity
  8
0
100
AcDbLine
 10
-29.99999999999857
 20
0.0
 30
0.0
 11
-9.999999999998582
 21
0.0
 31
0.0
  0
LINE
  5
1117
330
1107
100
AcDbEntity
  8
0
100
AcDbLine
 10
2.000000000001427
 20
0.0
 30
0.0
 11
-9.999999999998582
 21
0.0
 31
0.0
  0
LINE
  5
1118
330
1107
100
AcDbEntity
  8
0
100
AcDbLine
 10
3.749999999999974
 20
0.0
 30
0.0
 11
2.000000000001427
 21
0.0
 31
0.0
  0
LINE
  5
1119
330
1107
100
AcDbEntity
  8
0
100
AcDbLine
 10
26.00000000000143
 20
0.0
 30
0.0
 11
3.749999999999991
 21
0.0
 31
0.0
  0
LINE
  5
111A
330
1107
100
AcDbEntity
  8
0
100
AcDbLine
 10
-1.250000000000012
 20
-104.569851171331
 30
0.0
 11
-1.250000000000012
 21
-109.5
 31
0.0
  0
LINE
  5
111B
330
1107
100
AcDbEntity
  8
0
100
AcDbLine
 10
-1.250000000000012
 20
-102.75
 30
0.0
 11
-1.250000000000012
 21
-104.569851171331
 31
0.0
  0
LINE
  5
111C
330
1107
100
AcDbEntity
  8
0
100
AcDbLine
 10
-1.250000000000012
 20
-100.5
 30
0.0
 11
-1.250000000000012
 21
-102.75
 31
0.0
  0
LINE
  5
111D
330
1107
100
AcDbEntity
  8
0
100
AcDbLine
 10
-1.250000000000012
 20
-97.5
 30
0.0
 11
-1.250000000000012
 21
-100.5
 31
0.0
  0
LINE
  5
111E
330
1107
100
AcDbEntity
  8
0
100
AcDbLine
 10
-1.250000000000012
 20
-92.24999999999999
 30
0.0
 11
-1.250000000000012
 21
-97.5
 31
0.0
  0
LINE
  5
111F
330
1107
100
AcDbEntity
  8
0
100
AcDbLine
 10
-1.250000000000012
 20
-5.000000000000017
 30
0.0
 11
-1.250000000000012
 21
-92.24999999999999
 31
0.0
  0
LINE
  5
1120
330
1107
100
AcDbEntity
  8
0
100
AcDbLine
 10
3.749999999999989
 20
-2.500000000000017
 30
0.0
 11
26.00000000000143
 21
-2.500000000000032
 31
0.0
  0
LINE
  5
1121
330
1107
100
AcDbEntity
  8
0
100
AcDbLine
 10
1.249999999999987
 20
-92.24999999999999
 30
0.0
 11
1.249999999999987
 21
-5.000000000000017
 31
0.0
  0
LINE
  5
1122
330
1107
100
AcDbEntity
  8
0
100
AcDbLine
 10
1.249999999999987
 20
-97.5
 30
0.0
 11
1.249999999999987
 21
-92.24999999999999
 31
0.0
  0
LINE
  5
1123
330
1107
100
AcDbEntity
  8
0
100
AcDbLine
 10
1.249999999999987
 20
-100.5
 30
0.0
 11
1.249999999999987
 21
-97.5
 31
0.0
  0
LINE
  5
1124
330
1107
100
AcDbEntity
  8
0
100
AcDbLine
 10
1.249999999999987
 20
-102.75
 30
0.0
 11
1.249999999999987
 21
-100.5
 31
0.0
  0
LINE
  5
1125
330
1107
100
AcDbEntity
  8
0
100
AcDbLine
 10
1.249999999999987
 20
-104.569851171331
 30
0.0
 11
1.249999999999987
 21
-102.75
 31
0.0
  0
LINE
  5
1126
330
1107
100
AcDbEntity
  8
0
100
AcDbLine
 10
1.249999999999987
 20
-109.5
 30
0.0
 11
1.249999999999987
 21
-104.569851171331
 31
0.0
  0
LINE
  5
1127
330
1107
100
AcDbEntity
  8
0
100
AcDbLine
 10
-1.250000000000012
 20
-104.569851171331
 30
0.0
 11
1.249999999999987
 21
-104.569851171331
 31
0.0
  0
LINE
  5
1128
330
1107
100
AcDbEntity
  8
0
100
AcDbLine
 10
-1.250000000000012
 20
-102.75
 30
0.0
 11
1.249999999999987
 21
-102.75
 31
0.0
  0
LINE
  5
1129
330
1107
100
AcDbEntity
  8
0
100
AcDbLine
 10
-1.250000000000012
 20
-92.24999999999999
 30
0.0
 11
1.249999999999987
 21
-92.24999999999999
 31
0.0
  0
LINE
  5
112A
330
1107
100
AcDbEntity
  8
0
100
AcDbLine
 10
-9.999999999998586
 20
-2.500000000000009
 30
0.0
 11
-0.5801270189222063
 21
-2.500000000000016
 31
0.0
  0
LINE
  5
112B
330
1107
100
AcDbEntity
  8
0
100
AcDbLine
 10
-9.999999999998584
 20
-2.500000000000009
 30
0.0
 11
-29.99999999999858
 21
-2.499999999999997
 31
0.0
  0
LINE
  5
112C
330
1107
100
AcDbEntity
  8
0
100
AcDbLine
 10
-29.99999999999858
 20
0.0
 30
0.0
 11
-29.99999999999858
 21
-2.499999999999996
 31
0.0
  0
LINE
  5
112D
330
1107
100
AcDbEntity
  8
0
100
AcDbLine
 10
-3.750000000000013
 20
-89.75000000000001
 30
0.0
 11
-3.750000000000013
 21
-105.25
 31
0.0
  0
LINE
  5
112E
330
1107
100
AcDbEntity
  8
0
100
AcDbLine
 10
-3.250000000000012
 20
-105.25
 30
0.0
 11
-3.750000000000013
 21
-105.25
 31
0.0
  0
LINE
  5
112F
330
1107
100
AcDbEntity
  8
0
100
AcDbLine
 10
-3.250000000000012
 20
-89.75000000000001
 30
0.0
 11
-3.750000000000013
 21
-89.75000000000001
 31
0.0
  0
ARC
  5
1130
330
1107
100
AcDbEntity
  8
0
100
AcDbCircle
 10
3.749999999999987
 20
-5.000000000000016
 30
0.0
 40
5.0
100
AcDbArc
 50
89.99999999999992
 51
180.0
  0
ARC
  5
1131
330
1107
100
AcDbEntity
  8
0
100
AcDbCircle
 10
3.749999999999987
 20
-5.000000000000016
 30
0.0
 40
2.5
100
AcDbArc
 50
89.99999999999992
 51
180.0
  0
ARC
  5
1132
330
1107
100
AcDbEntity
  8
0
100
AcDbCircle
 10
1.249999999999987
 20
-69.74999999999988
 30
0.0
 40
2.5
100
AcDbArc
 50
270.0
 51
0.0
  0
ARC
  5
1133
330
1107
100
AcDbEntity
  8
0
100
AcDbCircle
 10
1.249999999999987
 20
-66.75000000000013
 30
0.0
 40
2.5
100
AcDbArc
 50
0.0
 51
90.00000000000003
  0
LINE
  5
1134
330
1107
100
AcDbEntity
  8
0
100
AcDbLine
 10
3.749999999999987
 20
-66.75000000000003
 30
0.0
 11
3.749999999999987
 21
-69.75000000000003
 31
0.0
  0
ARC
  5
1135
330
1107
100
AcDbEntity
  8
0
100
AcDbCircle
 10
1.249999999999987
 20
-32.0
 30
0.0
 40
2.5
100
AcDbArc
 50
270.0
 51
0.0
  0
ARC
  5
1136
330
1107
100
AcDbEntity
  8
0
100
AcDbCircle
 10
9.500000000000003
 20
-2.500000000000025
 30
0.0
 40
2.5
100
AcDbArc
 50
269.9999999999999
 51
0.0
  0
ARC
  5
1137
330
1107
100
AcDbEntity
  8
0
100
AcDbCircle
 10
-3.750000000000012
 20
-5.000000000000018
 30
0.0
 40
2.5
100
AcDbArc
 50
0.0
 51
89.99999999999976
  0
ARC
  5
1138
330
1107
100
AcDbEntity
  8
0
100
AcDbCircle
 10
-3.250000000000012
 20
-107.25
 30
0.0
 40
2.0
100
AcDbArc
 50
0.0
 51
90.00000000000005
  0
ARC
  5
1139
330
1107
100
AcDbEntity
  8
0
100
AcDbCircle
 10
-3.250000000000012
 20
-87.75000000000003
 30
0.0
 40
2.0
100
AcDbArc
 50
270.0
 51
0.0
  0
ENDBLK
  5
1109
330
1107
100
AcDbEntity
  8
0
100
AcDbBlockEnd
  0
BLOCK
  5
113B
330
113A
100
AcDbEntity
  8
0
100
AcDbBlockBegin
  2
CBH220-Bottom
 70
     0
 10
0.0
 20
0.0
 30
0.0
  3
CBH220-Bottom
  1

  0
LINE
  5
113D
330
113A
100
AcDbEntity
  8
0
100
AcDbLine
 10
3.749999999999987
 20
5.000000000000017
 30
0.0
 11
3.749999999999987
 21
30.50000000000001
 31
0.0
  0
LINE
  5
113E
330
113A
100
AcDbEntity
  8
0
100
AcDbLine
 10
7.999999999999998
 20
5.000000000000023
 30
0.0
 11
3.749999999999987
 21
5.000000000000017
 31
0.0
  0
LINE
  5
113F
330
113A
100
AcDbEntity
  8
0
100
AcDbLine
 10
7.999999999999998
 20
5.000000000000022
 30
0.0
 11
9.499999999999998
 21
5.000000000000024
 31
0.0
  0
LINE
  5
1140
330
113A
100
AcDbEntity
  8
0
100
AcDbLine
 10
3.749999999999987
 20
32.0
 30
0.0
 11
3.749999999999987
 21
30.50000000000001
 31
0.0
  0
LINE
  5
1141
330
113A
100
AcDbEntity
  8
0
100
AcDbLine
 10
-30.00000000000147
 20
0.0
 30
0.0
 11
-26.00000000000147
 21
0.0
 31
0.0
  0
LINE
  5
1142
330
113A
100
AcDbEntity
  8
0
100
AcDbLine
 10
-26.00000000000147
 20
0.0
 30
0.0
 11
-26.00000000000147
 21
2.5
 31
0.0
  0
LINE
  5
1143
330
113A
100
AcDbEntity
  8
0
100
AcDbLine
 10
-26.00000000000147
 20
2.500000000000001
 30
0.0
 11
-30.00000000000147
 21
2.499999999999993
 31
0.0
  0
LINE
  5
1144
330
113A
100
AcDbEntity
  8
0
100
AcDbLine
 10
-30.00000000000147
 20
2.499999999999993
 30
0.0
 11
-30.00000000000147
 21
0.0
 31
0.0
  0
LINE
  5
1145
330
113A
100
AcDbEntity
  8
0
100
AcDbLine
 10
1.249999999999987
 20
109.4999999999986
 30
0.0
 11
1.249999999999987
 21
113.4999999999986
 31
0.0
  0
LINE
  5
1146
330
113A
100
AcDbEntity
  8
0
100
AcDbLine
 10
1.249999999999987
 20
113.4999999999986
 30
0.0
 11
-1.250000000000012
 21
113.4999999999986
 31
0.0
  0
LINE
  5
1147
330
113A
100
AcDbEntity
  8
0
100
AcDbLine
 10
-1.250000000000012
 20
113.4999999999986
 30
0.0
 11
-1.250000000000012
 21
109.4999999999986
 31
0.0
  0
LINE
  5
1148
330
113A
100
AcDbEntity
  8
0
100
AcDbLine
 10
-1.250000000000012
 20
109.4999999999986
 30
0.0
 11
1.249999999999987
 21
109.4999999999986
 31
0.0
  0
LINE
  5
1149
330
113A
100
AcDbEntity
  8
0
100
AcDbLine
 10
-3.750000000000028
 20
2.500000000000039
 30
0.0
 11
-26.00000000000147
 21
2.500000000000001
 31
0.0
  0
LINE
  5
114A
330
113A
100
AcDbEntity
  8
0
100
AcDbLine
 10
9.999999999998557
 20
2.500000000000059
 30
0.0
 11
0.580127018922182
 21
2.500000000000043
 31
0.0
  0
LINE
  5
114B
330
113A
100
AcDbEntity
  8
0
100
AcDbLine
 10
9.999999999998554
 20
2.500000000000058
 30
0.0
 11
29.99999999999854
 21
2.500000000000088
 31
0.0
  0
LINE
  5
114C
330
113A
100
AcDbEntity
  8
0
100
AcDbLine
 10
-1.250000000000012
 20
109.4999999999986
 30
0.0
 11
-1.250000000000012
 21
5.000000000000035
 31
0.0
  0
LINE
  5
114D
330
113A
100
AcDbEntity
  8
0
100
AcDbLine
 10
1.249999999999987
 20
5.000000000000035
 30
0.0
 11
1.249999999999987
 21
109.4999999999986
 31
0.0
  0
LINE
  5
114E
330
113A
100
AcDbEntity
  8
0
100
AcDbLine
 10
29.99999999999857
 20
0.0
 30
0.0
 11
9.999999999998568
 21
0.0
 31
0.0
  0
LINE
  5
114F
330
113A
100
AcDbEntity
  8
0
100
AcDbLine
 10
-2.000000000001452
 20
0.0
 30
0.0
 11
9.999999999998559
 21
0.0
 31
0.0
  0
LINE
  5
1150
330
113A
100
AcDbEntity
  8
0
100
AcDbLine
 10
-26.00000000000147
 20
0.0
 30
0.0
 11
-3.750000000000008
 21
0.0
 31
0.0
  0
LINE
  5
1151
330
113A
100
AcDbEntity
  8
0
100
AcDbLine
 10
-3.749999999999994
 20
0.0
 30
0.0
 11
-2.000000000001452
 21
0.0
 31
0.0
  0
LINE
  5
1152
330
113A
100
AcDbEntity
  8
0
100
AcDbLine
 10
29.99999999999854
 20
2.500000000000088
 30
0.0
 11
29.99999999999854
 21
0.0
 31
0.0
  0
LINE
  5
1153
330
113A
100
AcDbEntity
  8
0
100
AcDbLine
 10
-3.750000000000012
 20
105.25
 30
0.0
 11
-3.750000000000012
 21
89.75000000000001
 31
0.0
  0
LINE
  5
1154
330
113A
100
AcDbEntity
  8
0
100
AcDbLine
 10
-3.250000000000012
 20
89.75000000000001
 30
0.0
 11
-3.750000000000012
 21
89.75000000000001
 31
0.0
  0
LINE
  5
1155
330
113A
100
AcDbEntity
  8
0
100
AcDbLine
 10
-3.250000000000012
 20
105.25
 30
0.0
 11
-3.750000000000012
 21
105.25
 31
0.0
  0
ARC
  5
1156
330
113A
100
AcDbEntity
  8
0
100
AcDbCircle
 10
1.249999999999987
 20
69.75
 30
0.0
 40
2.5
100
AcDbArc
 50
0.0
 51
90.00000000000003
  0
ARC
  5
1157
330
113A
100
AcDbEntity
  8
0
100
AcDbCircle
 10
1.249999999999987
 20
66.75000000000003
 30
0.0
 40
2.499999999999893
100
AcDbArc
 50
270.0
 51
0.0
  0
LINE
  5
1158
330
113A
100
AcDbEntity
  8
0
100
AcDbLine
 10
3.749999999999987
 20
69.75000000000003
 30
0.0
 11
3.749999999999987
 21
66.75000000000003
 31
0.0
  0
ARC
  5
1159
330
113A
100
AcDbEntity
  8
0
100
AcDbCircle
 10
1.249999999999987
 20
32.0
 30
0.0
 40
2.5
100
AcDbArc
 50
0.0
 51
90.00000000000003
  0
ARC
  5
115A
330
113A
100
AcDbEntity
  8
0
100
AcDbCircle
 10
9.500000000000003
 20
2.500000000000025
 30
0.0
 40
2.5
100
AcDbArc
 50
0.0
 51
90.0000000000001
  0
ARC
  5
115B
330
113A
100
AcDbEntity
  8
0
100
AcDbCircle
 10
3.749999999999987
 20
5.000000000000025
 30
0.0
 40
2.5
100
AcDbArc
 50
180.0
 51
269.9999999999999
  0
ARC
  5
115C
330
113A
100
AcDbEntity
  8
0
100
AcDbCircle
 10
-3.750000000000012
 20
5.000000000000039
 30
0.0
 40
5.0
100
AcDbArc
 50
270.0000000000001
 51
0.0
  0
ARC
  5
115D
330
113A
100
AcDbEntity
  8
0
100
AcDbCircle
 10
-3.750000000000012
 20
5.000000000000039
 30
0.0
 40
2.500000000000007
100
AcDbArc
 50
269.9999999999996
 51
0.0
  0
ARC
  5
115E
330
113A
100
AcDbEntity
  8
0
100
AcDbCircle
 10
-3.250000000000012
 20
87.75000000000003
 30
0.0
 40
2.0
100
AcDbArc
 50
0.0
 51
90.00000000000003
  0
ARC
  5
115F
330
113A
100
AcDbEntity
  8
0
100
AcDbCircle
 10
-3.250000000000012
 20
107.25
 30
0.0
 40
2.0
100
AcDbArc
 50
270.0
 51
0.0
  0
ENDBLK
  5
113C
330
113A
100
AcDbEntity
  8
0
100
AcDbBlockEnd
  0
BLOCK
  5
1161
330
1160
100
AcDbEntity
  8
0
100
AcDbBlockBegin
  2
CBH220-ISO
 70
     0
 10
0.0
 20
0.0
 30
0.0
  3
CBH220-ISO
  1

  0
ELLIPSE
  5
1163
330
1160
100
AcDbEntity
  8
0
100
AcDbEllipse
 10
37.47313521666185
 20
99.40642403808483
 30
0.0
 11
1.249999999999999
 21
-2.165063509461095
 31
0.0
210
0.0
220
0.0
230
1.0
 40
0.577350269189626
 41
0.0
 42
0.7853981633974519
  0
ELLIPSE
  5
1164
330
1160
100
AcDbEntity
  8
0
100
AcDbEllipse
 10
41.00866912259458
 20
99.40642403808482
 30
0.0
 11
-1.250000000000002
 21
-2.165063509461094
 31
0.0
210
0.0
220
0.0
230
1.0
 40
0.5773502691896266
 41
5.497787143782135
 42
6.283185307179585
  0
ELLIPSE
  5
1165
330
1160
100
AcDbEntity
  8
0
100
AcDbEllipse
 10
41.00866912259458
 20
101.855913780868
 30
0.0
 11
-1.249999999999873
 21
-2.165063509461169
 31
0.0
210
0.0
220
0.0
230
1.0
 40
0.5773502691896264
 41
3.926990816986998
 42
5.497787143781902
  0
ELLIPSE
  5
1166
330
1160
100
AcDbEntity
  8
0
100
AcDbEllipse
 10
37.47313521666185
 20
101.855913780868
 30
0.0
 11
1.24999999999987
 21
-2.165063509461171
 31
0.0
210
0.0
220
0.0
230
0.9999999999999998
 40
0.577350269189626
 41
0.7853981633976846
 42
2.356194490192585
  0
ELLIPSE
  5
1167
330
1160
100
AcDbEntity
  8
0
100
AcDbEllipse
 10
44.01387294263739
 20
100.1208585463966
 30
0.0
 11
-1.249999999999873
 21
-2.165063509461169
 31
0.0
210
0.0
220
0.0
230
1.0
 40
0.5773502691896267
 41
3.926990816986998
 42
5.497787143781901
  0
LINE
  5
1168
330
1160
100
AcDbEntity
  8
0
100
AcDbLine
 10
41.00866912259455
 20
103.8971552331873
 30
0.0
 11
44.01387294263739
 21
102.1620999987159
 31
0.0
  0
ELLIPSE
  5
1169
330
1160
100
AcDbEntity
  8
0
100
AcDbEllipse
 10
19.44191229640486
 20
88.99609263125631
 30
0.0
 11
1.249999999999991
 21
-2.165063509461081
 31
0.0
210
0.0
220
0.0
230
1.0
 40
0.5773502691896258
 41
0.0
 42
0.7853981633974492
  0
ELLIPSE
  5
116A
330
1160
100
AcDbEntity
  8
0
100
AcDbEllipse
 10
19.44191229640486
 20
90.22083750264791
 30
0.0
 11
-1.999999999999999
 21
-3.464101615137755
 31
0.0
210
0.0
220
0.0
230
1.0
 40
0.577350269189626
 41
3.926990816987238
 42
6.283185307179584
  0
LINE
  5
116B
330
1160
100
AcDbEntity
  8
0
100
AcDbLine
 10
19.44191229640486
 20
93.48682382635884
 30
0.0
 11
37.47313521666182
 21
103.8971552331873
 31
0.0
  0
LINE
  5
116C
330
1160
100
AcDbEntity
  8
0
100
AcDbLine
 10
-10.0797958181335
 20
-76.65065122445605
 30
0.0
 11
-10.07979581813341
 21
62.97026411418513
 31
0.0
  0
ELLIPSE
  5
116D
330
1160
100
AcDbEntity
  8
0
100
AcDbEllipse
 10
-7.251368693387325
 20
64.6032572760405
 30
0.0
 11
2.000000000000209
 21
3.464101615137634
 31
0.0
210
0.0
220
0.0
230
1.0
 40
0.5773502691896259
 41
0.0
 42
2.356194490192587
  0
ELLIPSE
  5
116E
330
1160
100
AcDbEntity
  8
0
100
AcDbEllipse
 10
-7.251368693387334
 20
-75.01765806260062
 30
0.0
 11
-2.000000000000003
 21
-3.464101615137753
 31
0.0
210
0.0
220
0.0
230
1.0
 40
0.5773502691896259
 41
5.49778714378214
 42
6.28318530717959
  0
ELLIPSE
  5
116F
330
1160
100
AcDbEntity
  8
0
100
AcDbEllipse
 10
19.44191229640486
 20
91.44558237403948
 30
0.0
 11
-1.250000000000129
 21
2.165063509461021
 31
0.0
210
0.0
220
0.0
230
1.0
 40
0.577350269189626
 41
3.926990816987002
 42
5.497787143781899
  0
ELLIPSE
  5
1170
330
1160
100
AcDbEntity
  8
0
100
AcDbEllipse
 10
44.01387294263739
 20
97.67136880361338
 30
0.0
 11
-1.250000000000002
 21
-2.165063509461095
 31
0.0
210
0.0
220
0.0
230
1.0
 40
0.5773502691896267
 41
5.497787143782143
 42
6.283185307179596
  0
ELLIPSE
  5
1171
330
1160
100
AcDbEntity
  8
0
100
AcDbEllipse
 10
44.01387294263739
 20
98.89611367500499
 30
0.0
 11
1.999999999999787
 21
-3.464101615137876
 31
0.0
210
0.0
220
0.0
230
1.0
 40
0.5773502691896252
 41
0.0
 42
2.356194490192587
  0
ELLIPSE
  5
1172
330
1160
100
AcDbEntity
  8
0
100
AcDbEllipse
 10
-8.312028865167047
 20
63.99088484034478
 30
0.0
 11
-2.5
 21
0.0000000000001499
 31
0.0
210
0.0
220
0.0
230
1.0
 40
0.5773502691896258
 41
0.7853981633976908
 42
2.356194490192587
  0
ELLIPSE
  5
1173
330
1160
100
AcDbEntity
  8
0
100
AcDbEllipse
 10
-8.312028865167135
 20
-75.63003049829641
 30
0.0
 11
2.5
 21
0.000000000000149
 31
0.0
210
0.0
220
0.0
230
1.0
 40
0.5773502691896258
 41
3.926990816987
 42
5.497787143781895
  0
LINE
  5
1174
330
1160
100
AcDbEntity
  8
0
100
AcDbLine
 10
-6.54426191220077
 20
-76.65065122445605
 30
0.0
 11
-6.544261912200681
 21
62.97026411418513
 31
0.0
  0
ELLIPSE
  5
1175
330
1160
100
AcDbEntity
  8
0
100
AcDbEllipse
 10
-6.190708521607506
 20
-74.40528562690483
 30
0.0
 11
2.499999999999893
 21
-0.0000000000000429
 31
0.0
210
0.0
220
0.0
230
1.0
 40
0.5773502691896258
 41
5.497787143782247
 42
6.283185307179706
  0
ELLIPSE
  5
1176
330
1160
100
AcDbEntity
  8
0
100
AcDbEllipse
 10
-5.483601740420969
 20
-76.03827878876031
 30
0.0
 11
-0.7500000000000783
 21
-1.299038105676612
 31
0.0
210
0.0
220
0.0
230
0.9999999999999998
 40
0.577350269189626
 41
5.497787143782386
 42
8.639379797372178
  0
ELLIPSE
  5
1177
330
1160
100
AcDbEntity
  8
0
100
AcDbEllipse
 10
-6.190708521607568
 20
65.21562971173626
 30
0.0
 11
2.5
 21
-0.0000000000000026
 31
0.0
210
0.0
220
0.0
230
1.0
 40
0.5773502691896258
 41
5.497787143782147
 42
6.283185307179597
  0
LINE
  5
1178
330
1160
100
AcDbEntity
  8
0
100
AcDbLine
 10
-4.422941568641203
 20
64.19500898557661
 30
0.0
 11
-4.422941568641141
 21
-75.42590635306448
 31
0.0
  0
ELLIPSE
  5
1179
330
1160
100
AcDbEntity
  8
0
100
AcDbEllipse
 10
-5.48360174042096
 20
63.58263654988085
 30
0.0
 11
0.7500000000000783
 21
1.299038105676612
 31
0.0
210
0.0
220
0.0
230
0.9999999999999998
 40
0.577350269189626
 41
5.497787143782386
 42
8.639379797372178
  0
SPLINE
  5
117A
330
1160
100
AcDbEntity
  8
0
100
AcDbSpline
210
0.0
220
0.0
230
1.0
 70
     8
 71
     3
 72
    28
 73
    24
 74
     0
 42
0.000000001
 43
0.0000000001
 40
3.202115928026854
 40
3.202115928026854
 40
3.202115928026854
 40
3.202115928026854
 40
3.293458456403996
 40
3.293458456403996
 40
3.435454010707174
 40
3.435454010707174
 40
3.577818157959039
 40
3.577818157959039
 40
3.725723663290882
 40
3.725723663290882
 40
3.880249013817512
 40
3.880249013817512
 40
4.038716437692246
 40
4.038716437692246
 40
4.196072480006001
 40
4.196072480006001
 40
4.347721259668328
 40
4.347721259668328
 40
4.492474312354053
 40
4.492474312354053
 40
4.633724411786518
 40
4.633724411786518
 40
4.651865705947303
 40
4.651865705947303
 40
4.651865705947303
 40
4.651865705947303
 10
38.7215434852143
 20
97.24044154204404
 30
0.0
 10
38.72317460167172
 20
97.2412756564921
 30
0.0
 10
38.72843055586915
 20
97.24386851821385
 30
0.0
 10
38.75028024276645
 20
97.25313466977588
 30
0.0
 10
38.77155241152332
 20
97.26123888539161
 30
0.0
 10
38.82695521241132
 20
97.27836347196486
 30
0.0
 10
38.86110707265999
 20
97.28739803254732
 30
0.0
 10
38.94016560725545
 20
97.30401678089362
 30
0.0
 10
38.98543401704203
 20
97.31153661085485
 30
0.0
 10
39.08390887574086
 20
97.32313660881013
 30
0.0
 10
39.13737755087896
 20
97.32704987682366
 30
0.0
 10
39.24716673603715
 20
97.33001485048447
 30
0.0
 10
39.30352391723181
 20
97.32893914321961
 30
0.0
 10
39.4121692495189
 20
97.3219016895854
 30
0.0
 10
39.46448141047118
 20
97.31597092514512
 30
0.0
 10
39.5586388493599
 20
97.30097958108078
 30
0.0
 10
39.60079102867505
 20
97.29203520537147
 30
0.0
 10
39.67090203183991
 20
97.27392309557462
 30
0.0
 10
39.69941105245736
 20
97.26477716328364
 30
0.0
 10
39.74085708281324
 20
97.249591543125
 30
0.0
 10
39.75413700746498
 20
97.2434719569016
 30
0.0
 10
39.75947031029853
 20
97.24084274974153
 30
0.0
 10
39.7599369023846
 20
97.24060720327365
 30
0.0
 10
39.76026085404206
 20
97.24044154204404
 30
0.0
  0
LINE
  5
117B
330
1160
100
AcDbEntity
  8
0
100
AcDbLine
 10
20.69191229640487
 20
86.83102912179524
 30
0.0
 11
38.72313521666185
 21
97.24136052862375
 31
0.0
  0
SPLINE
  5
117C
330
1160
100
AcDbEntity
  8
0
100
AcDbSpline
210
0.0
220
0.0
230
1.0
 70
     8
 71
     3
 72
    16
 73
    12
 74
     0
 42
0.000000001
 43
0.0000000001
 40
3.926990816987241
 40
3.926990816987241
 40
3.926990816987241
 40
3.926990816987241
 40
4.084070449666731
 40
4.084070449666731
 40
4.24115008234622
 40
4.24115008234622
 40
4.39822971502571
 40
4.39822971502571
 40
4.5553093477052
 40
4.5553093477052
 40
4.712388980384689
 40
4.712388980384689
 40
4.712388980384689
 40
4.712388980384689
 10
17.44191229640487
 20
86.75673588751015
 30
0.0
 10
17.6775317454241
 20
86.62070093519259
 30
0.0
 10
17.93174921897189
 20
86.51789069573611
 30
0.0
 10
18.43982802532789
 20
86.38498298111844
 30
0.0
 10
18.6930473682073
 20
86.35435977654626
 30
0.0
 10
19.17272605975309
 20
86.34908377063476
 30
0.0
 10
19.39936144366042
 20
86.37388531286092
 30
0.0
 10
19.81972143176625
 20
86.45886752480008
 30
0.0
 10
20.01377716020733
 20
86.51893316967701
 30
0.0
 10
20.37293315239788
 20
86.66060716070177
 30
0.0
 10
20.53820148925321
 20
86.74228414590885
 30
0.0
 10
20.69191229640487
 20
86.83102912179521
 30
0.0
  0
LINE
  5
117D
330
1160
100
AcDbEntity
  8
0
100
AcDbLine
 10
39.75866912259458
 20
97.2413605286237
 30
0.0
 11
42.76387294263739
 21
95.50630529415229
 31
0.0
  0
SPLINE
  5
117E
330
1160
100
AcDbEntity
  8
0
100
AcDbSpline
210
0.0
220
0.0
230
1.0
 70
     8
 71
     3
 72
    16
 73
    12
 74
     0
 42
0.000000001
 43
0.0000000001
 40
4.71238898038469
 40
4.71238898038469
 40
4.71238898038469
 40
4.71238898038469
 40
4.86946861306418
 40
4.86946861306418
 40
5.026548245743669
 40
5.026548245743669
 40
5.183627878423159
 40
5.183627878423159
 40
5.340707511102649
 40
5.340707511102649
 40
5.497787143782137
 40
5.497787143782137
 40
5.497787143782137
 40
5.497787143782137
 10
42.76387294263739
 20
95.50630529415229
 30
0.0
 10
42.91758374978905
 20
95.41756031826592
 30
0.0
 10
43.08285208664437
 20
95.33588333305884
 30
0.0
 10
43.44200807883493
 20
95.19420934203408
 30
0.0
 10
43.636063807276
 20
95.13414369715716
 30
0.0
 10
44.05642379538185
 20
95.04916148521799
 30
0.0
 10
44.28305917928917
 20
95.02435994299183
 30
0.0
 10
44.76273787083495
 20
95.02963594890333
 30
0.0
 10
45.01595721371437
 20
95.06025915347551
 30
0.0
 10
45.52403602007037
 20
95.19316686809318
 30
0.0
 10
45.77825349361815
 20
95.29597710754968
 30
0.0
 10
46.01387294263738
 20
95.43201205986722
 30
0.0
  0
SPLINE
  5
117F
330
1160
100
AcDbEntity
  8
0
100
AcDbSpline
210
0.0
220
0.0
230
1.0
 70
     8
 71
     3
 72
    22
 73
    18
 74
     0
 42
0.000000001
 43
0.0000000001
 40
3.926990816987239
 40
3.926990816987239
 40
3.926990816987239
 40
3.926990816987239
 40
4.116805541467796
 40
4.116805541467796
 40
4.320284866581095
 40
4.320284866581095
 40
4.566908685584335
 40
4.566908685584335
 40
4.894382107703334
 40
4.894382107703334
 40
5.316631577384133
 40
5.316631577384133
 40
5.766190867036893
 40
5.766190867036893
 40
6.215036425183772
 40
6.215036425183772
 40
6.283185307179586
 40
6.283185307179586
 40
6.283185307179586
 40
6.283185307179586
 10
-9.251368693387345
 20
-78.4817596777384
 30
0.0
 10
-8.966646606666506
 20
-78.6461440511509
 30
0.0
 10
-8.654922740019692
 20
-78.7612568550218
 30
0.0
 10
-8.020685900801094
 20
-78.89137602367276
 30
0.0
 10
-7.700634778552215
 20
-78.90028541415185
 30
0.0
 10
-7.053897331373812
 20
-78.83570070611087
 30
0.0
 10
-6.739031673343509
 20
-78.74659234413309
 30
0.0
 10
-6.090371099494733
 20
-78.48182929754146
 30
0.0
 10
-5.781138899725544
 20
-78.28748039258029
 30
0.0
 10
-5.160011942830511
 20
-77.79688381130222
 30
0.0
 10
-4.872175711938355
 20
-77.48516170217057
 30
0.0
 10
-4.366301794650402
 20
-76.78981967603937
 30
0.0
 10
-4.154820187505485
 20
-76.40245414173572
 30
0.0
 10
-3.83547005461426
 20
-75.56952262860064
 30
0.0
 10
-3.725360165402644
 20
-75.12465259103691
 30
0.0
 10
-3.692975766539641
 20
-74.55809062690621
 30
0.0
 10
-3.690708521607506
 20
-74.48228951068322
 30
0.0
 10
-3.690708521607506
 20
-74.40528562690483
 30
0.0
  0
LINE
  5
1180
330
1160
100
AcDbEntity
  8
0
100
AcDbLine
 10
-3.690708521607586
 20
-74.40528562690487
 30
0.0
 11
-3.690708521607577
 21
65.21562971173626
 31
0.0
  0
SPLINE
  5
1181
330
1160
100
AcDbEntity
  8
0
100
AcDbSpline
210
0.0
220
0.0
230
1.0
 70
     8
 71
     3
 72
    16
 73
    12
 74
     0
 42
0.000000001
 43
0.0000000001
 40
0.0
 40
0.0
 40
0.0
 40
0.0
 40
0.1570796326794895
 40
0.1570796326794895
 40
0.314159265358979
 40
0.314159265358979
 40
0.4712388980384685
 40
0.4712388980384685
 40
0.628318530717958
 40
0.628318530717958
 40
0.7853981633974475
 40
0.7853981633974475
 40
0.7853981633974475
 40
0.7853981633974475
 10
-3.690708521607497
 20
65.21562971173631
 30
0.0
 10
-3.690708521607497
 20
65.39311966350904
 30
0.0
 10
-3.702608345941298
 20
65.5770847342705
 30
0.0
 10
-3.759493066753609
 20
65.95895994294131
 30
0.0
 10
-3.804502556616027
 20
66.15704995595963
 30
0.0
 10
-3.941085796259837
 20
66.5635834903634
 30
0.0
 10
-4.032924722592623
 20
66.77225626133665
 30
0.0
 10
-4.277333223515382
 20
67.18503219091363
 30
0.0
 10
-4.430463368059891
 20
67.38901497229071
 30
0.0
 10
-4.799604228455729
 20
67.76257026841065
 30
0.0
 10
-5.015749244368086
 20
67.9313239388607
 30
0.0
 10
-5.251368693387314
 20
68.06735889117826
 30
0.0
  0
ELLIPSE
  5
1182
330
1160
100
AcDbEntity
  8
0
100
AcDbEllipse
 10
39.24090216962819
 20
102.8765345070276
 30
0.0
 11
2.5
 21
-0.00000000000015
 31
0.0
210
0.0
220
0.0
230
1.0
 40
0.5773502691896258
 41
0.7853981633976872
 42
2.356194490192581
  0
LINE
  5
1183
330
1160
100
AcDbEntity
  8
0
100
AcDbLine
 10
42.77643607556093
 20
111.4497486067688
 30
0.0
 11
41.00866912259456
 21
110.4291278806091
 31
0.0
  0
LINE
  5
1184
330
1160
100
AcDbEntity
  8
0
100
AcDbLine
 10
37.47313521666182
 20
22.65574543087856
 30
0.0
 11
37.47313521666182
 21
49.19188431102966
 31
0.0
  0
LINE
  5
1185
330
1160
100
AcDbEntity
  8
0
100
AcDbLine
 10
37.47313521666182
 20
90.01671335741598
 30
0.0
 11
37.47313521666182
 21
96.5196726921367
 31
0.0
  0
LINE
  5
1186
330
1160
100
AcDbEntity
  8
0
100
AcDbLine
 10
37.47313521666183
 20
103.8971552331873
 30
0.0
 11
37.47313521666182
 21
110.4291278806091
 31
0.0
  0
ELLIPSE
  5
1187
330
1160
100
AcDbEntity
  8
0
100
AcDbEllipse
 10
39.24090216962819
 20
109.4085071544494
 30
0.0
 11
5.0
 21
-0.0000000000002989
 31
0.0
210
0.0
220
0.0
230
1.0
 40
0.5773502691896258
 41
0.7853981633976908
 42
2.356194490192585
  0
LINE
  5
1188
330
1160
100
AcDbEntity
  8
0
100
AcDbLine
 10
41.00866912259456
 20
110.4291278806091
 30
0.0
 11
41.00866912259455
 21
103.8971552331873
 31
0.0
  0
ELLIPSE
  5
1189
330
1160
100
AcDbEntity
  8
0
100
AcDbEllipse
 10
39.24090216962819
 20
109.4085071544494
 30
0.0
 11
-2.5
 21
-0.000000000000149
 31
0.0
210
0.0
220
0.0
230
1.0
 40
0.5773502691896258
 41
3.926990816986995
 42
5.49778714378189
  0
ELLIPSE
  5
118A
330
1160
100
AcDbEntity
  8
0
100
AcDbEllipse
 10
39.24090216962819
 20
88.99609263125629
 30
0.0
 11
2.5
 21
-0.0000000000001492
 31
0.0
210
0.0
220
0.0
230
1.0
 40
0.5773502691896258
 41
1.308996938995445
 42
2.356194490192592
  0
SPLINE
  5
118B
330
1160
100
AcDbEntity
  8
0
100
AcDbSpline
210
0.0
220
0.0
230
1.0
 70
     8
 71
     3
 72
    12
 73
     8
 74
     0
 42
0.000000001
 43
0.0000000001
 40
0.0
 40
0.0
 40
0.0
 40
0.0
 40
0.0483939315595173
 40
0.0483939315595173
 40
0.0973081656787435
 40
0.0973081656787435
 40
0.1727322110341026
 40
0.1727322110341026
 40
0.1727322110341026
 40
0.1727322110341026
 10
39.88794978238554
 20
90.39028647081913
 30
0.0
 10
40.04376627674412
 20
90.36618556256042
 30
0.0
 10
40.19244816421658
 20
90.31106405251462
 30
0.0
 10
40.46868884342901
 20
90.14647243986107
 30
0.0
 10
40.59159043963504
 20
90.0391910323318
 30
0.0
 10
40.86386557006739
 20
89.72492904199073
 30
0.0
 10
40.96121062779484
 20
89.5321730191852
 30
0.0
 10
41.00866912259457
 20
89.43320987880909
 30
0.0
  0
LINE
  5
118C
330
1160
100
AcDbEntity
  8
0
100
AcDbLine
 10
41.00866912259455
 20
96.5196726921367
 30
0.0
 11
41.00866912259455
 21
89.43320987880913
 31
0.0
  0
ELLIPSE
  5
118D
330
1160
100
AcDbEntity
  8
0
100
AcDbEllipse
 10
39.24090216962819
 20
48.17126358487
 30
0.0
 11
5.0
 21
-0.0000000000002986
 31
0.0
210
0.0
220
0.0
230
1.0
 40
0.5773502691896258
 41
1.308996938995431
 42
2.356194490192583
  0
SPLINE
  5
118E
330
1160
100
AcDbEntity
  8
0
100
AcDbSpline
210
0.0
220
0.0
230
1.0
 70
     8
 71
     3
 72
     8
 73
     4
 74
     0
 42
0.000000001
 43
0.0000000001
 40
0.0
 40
0.0
 40
0.0
 40
0.0
 40
0.1086383184841274
 40
0.1086383184841274
 40
0.1086383184841274
 40
0.1086383184841274
 10
40.53499739514288
 20
50.95965126399569
 30
0.0
 10
40.88478592029561
 20
50.9055367071769
 30
0.0
 10
41.22221824022862
 20
50.85744220524576
 30
0.0
 10
41.53657769444563
 20
50.82193547991046
 30
0.0
  0
ELLIPSE
  5
118F
330
1160
100
AcDbEntity
  8
0
100
AcDbEllipse
 10
39.24090216962818
 20
21.63512470471891
 30
0.0
 11
2.5
 21
-0.0000000000001492
 31
0.0
210
0.0
220
0.0
230
1.0
 40
0.5773502691896258
 41
0.785398163397689
 42
2.356194490192581
  0
LINE
  5
1190
330
1160
100
AcDbEntity
  8
0
100
AcDbLine
 10
41.00866912259454
 20
49.77538778963648
 30
0.0
 11
41.00866912259454
 21
22.65574543087856
 31
0.0
  0
SPLINE
  5
1191
330
1160
100
AcDbEntity
  8
0
100
AcDbSpline
210
0.0
220
0.0
230
1.0
 70
     8
 71
     3
 72
    12
 73
     8
 74
     0
 42
0.000000001
 43
0.0000000001
 40
0.0
 40
0.0
 40
0.0
 40
0.0
 40
0.037320367660107
 40
0.037320367660107
 40
0.0541955352975671
 40
0.0541955352975671
 40
0.070089453016671
 40
0.070089453016671
 40
0.070089453016671
 40
0.070089453016671
 10
41.00866912259455
 20
49.77538778963648
 30
0.0
 10
40.95518818140802
 20
49.72562077465496
 30
0.0
 10
40.8308671249417
 20
49.62293259546711
 30
0.0
 10
40.50241621238362
 20
49.5475839593362
 30
0.0
 10
40.38814570317973
 20
49.53561332752214
 30
0.0
 10
40.14397001404879
 20
49.53514708856397
 30
0.0
 10
40.01827514343933
 20
49.54529268591873
 30
0.0
 10
39.88794978238554
 20
49.56545742443285
 30
0.0
  0
ELLIPSE
  5
1192
330
1160
100
AcDbEntity
  8
0
100
AcDbEllipse
 10
39.24090216962819
 20
48.17126358487
 30
0.0
 11
-2.5
 21
0.0000000000000002
 31
0.0
210
0.0
220
0.0
230
1.0
 40
0.5773502691896259
 41
4.450589592585101
 42
5.497787143782137
  0
LINE
  5
1193
330
1160
100
AcDbEntity
  8
0
100
AcDbLine
 10
41.03367037281517
 20
49.78982226818144
 30
0.0
 11
41.00866912259454
 21
49.77538778963648
 31
0.0
  0
LINE
  5
1194
330
1160
100
AcDbEntity
  8
0
100
AcDbLine
 10
39.88794978238554
 20
49.56545742443285
 30
0.0
 11
40.53499739514289
 21
50.9596512639957
 31
0.0
  0
LINE
  5
1195
330
1160
100
AcDbEntity
  8
0
100
AcDbLine
 10
37.47313521666182
 20
49.19188431102966
 30
0.0
 11
35.70536826369545
 21
50.21250503718931
 31
0.0
  0
LINE
  5
1196
330
1160
100
AcDbEntity
  8
0
100
AcDbLine
 10
37.47313521666182
 20
110.4291278806091
 30
0.0
 11
35.70536826369546
 21
111.4497486067688
 31
0.0
  0
LINE
  5
1197
330
1160
100
AcDbEntity
  8
0
100
AcDbLine
 10
39.24090216962819
 20
100.8352930547083
 30
0.0
 11
42.24610598967102
 21
99.10023782023692
 31
0.0
  0
LINE
  5
1198
330
1160
100
AcDbEntity
  8
0
100
AcDbLine
 10
39.24090216962819
 20
98.38580331192517
 30
0.0
 11
21.20967924937124
 21
87.97547190509666
 31
0.0
  0
LINE
  5
1199
330
1160
100
AcDbEntity
  8
0
100
AcDbLine
 10
39.24090216962819
 20
100.8352930547083
 30
0.0
 11
39.24090216962819
 21
98.38580331192517
 31
0.0
  0
LINE
  5
119A
330
1160
100
AcDbEntity
  8
0
100
AcDbLine
 10
42.24610598967102
 20
96.65074807745373
 30
0.0
 11
39.24090216962819
 21
98.38580331192517
 31
0.0
  0
ELLIPSE
  5
119B
330
1160
100
AcDbEntity
  8
0
100
AcDbEllipse
 10
42.24610598967102
 20
97.87549294884534
 30
0.0
 11
0.749999999999921
 21
-1.299038105676703
 31
0.0
210
0.0
220
0.0
230
0.9999999999999998
 40
0.577350269189625
 41
5.497787143782377
 42
8.639379797372171
  0
ELLIPSE
  5
119C
330
1160
100
AcDbEntity
  8
0
100
AcDbEllipse
 10
21.20967924937124
 20
89.20021677648826
 30
0.0
 11
-0.7500000000000009
 21
-1.299038105676658
 31
0.0
210
0.0
220
0.0
230
1.0
 40
0.5773502691896259
 41
3.926990816987242
 42
7.068583470577034
  0
LINE
  5
119D
330
1160
100
AcDbEntity
  8
0
100
AcDbLine
 10
21.20967924937124
 20
90.42496164787984
 30
0.0
 11
39.24090216962819
 21
100.8352930547083
 31
0.0
  0
LINE
  5
119E
330
1160
100
AcDbEntity
  8
0
100
AcDbLine
 10
19.97224238229375
 20
-57.05473328219006
 30
0.0
 11
17.14381525754756
 21
-52.1557537966237
 31
0.0
  0
LINE
  5
119F
330
1160
100
AcDbEntity
  8
0
100
AcDbLine
 10
59.57022212874242
 20
15.20521412991248
 30
0.0
 11
56.74179500399624
 21
13.57222096805701
 31
0.0
  0
LINE
  5
11A0
330
1160
100
AcDbEntity
  8
0
100
AcDbLine
 10
61.3379890817088
 20
16.22583485607213
 30
0.0
 11
59.57022212874242
 21
15.20521412991248
 31
0.0
  0
LINE
  5
11A1
330
1160
100
AcDbEntity
  8
0
100
AcDbLine
 10
59.57022212874243
 20
96.44662393222121
 30
0.0
 11
61.33798908170881
 21
97.46724465838088
 31
0.0
  0
LINE
  5
11A2
330
1160
100
AcDbEntity
  8
0
100
AcDbLine
 10
61.33798908170881
 20
97.46724465838088
 30
0.0
 11
58.50956195696262
 21
102.3662241439472
 31
0.0
  0
LINE
  5
11A3
330
1160
100
AcDbEntity
  8
0
100
AcDbLine
 10
-36.41952341733141
 20
-111.8620662769636
 30
0.0
 11
-39.24795054207761
 21
-110.2290731151082
 31
0.0
  0
LINE
  5
11A4
330
1160
100
AcDbEntity
  8
0
100
AcDbLine
 10
-39.24795054207761
 20
-110.2290731151082
 30
0.0
 11
-41.01571749504398
 21
-109.2084523889486
 31
0.0
  0
LINE
  5
11A5
330
1160
100
AcDbEntity
  8
0
100
AcDbLine
 10
-38.18729037029876
 20
68.78780225329514
 30
0.0
 11
-41.01571749504494
 21
63.88882276772876
 31
0.0
  0
LINE
  5
11A6
330
1160
100
AcDbEntity
  8
0
100
AcDbLine
 10
-41.01571749504494
 20
63.88882276772876
 30
0.0
 11
-39.24795054207857
 21
62.8682020415691
 31
0.0
  0
LINE
  5
11A7
330
1160
100
AcDbEntity
  8
0
100
AcDbLine
 10
-39.24795054207857
 20
62.8682020415691
 30
0.0
 11
-36.4195234173324
 21
67.76718152713548
 31
0.0
  0
LINE
  5
11A8
330
1160
100
AcDbEntity
  8
0
100
AcDbLine
 10
-36.4195234173324
 20
67.76718152713548
 30
0.0
 11
-38.18729037029876
 21
68.78780225329514
 31
0.0
  0
LINE
  5
11A9
330
1160
100
AcDbEntity
  8
0
100
AcDbLine
 10
56.74179500399625
 20
101.3456034177875
 30
0.0
 11
59.57022212874243
 21
96.44662393222121
 31
0.0
  0
LINE
  5
11AA
330
1160
100
AcDbEntity
  8
0
100
AcDbLine
 10
58.50956195696262
 20
102.3662241439472
 30
0.0
 11
56.74179500399625
 21
101.3456034177875
 31
0.0
  0
LINE
  5
11AB
330
1160
100
AcDbEntity
  8
0
100
AcDbLine
 10
17.14381525754756
 20
-52.1557537966237
 30
0.0
 11
17.14381525754757
 21
-36.19496978398686
 31
0.0
  0
LINE
  5
11AC
330
1160
100
AcDbEntity
  8
0
100
AcDbLine
 10
26.60716457059577
 20
-60.88540739365845
 30
0.0
 11
19.97224238229375
 21
-57.05473328219006
 31
0.0
  0
ELLIPSE
  5
11AD
330
1160
100
AcDbEntity
  8
0
100
AcDbEllipse
 10
36.94280513077087
 20
-52.5640020870876
 30
0.0
 11
-1.249999999999993
 21
2.165063509461095
 31
0.0
210
0.0
220
0.0
230
1.0
 40
0.5773502691896251
 41
5.497787143782138
 42
7.86398230076199
  0
LINE
  5
11AE
330
1160
100
AcDbEntity
  8
0
100
AcDbLine
 10
45.42808650500943
 20
-55.42174012033462
 30
0.0
 11
36.94280513077087
 21
-50.52276063476826
 31
0.0
  0
ELLIPSE
  5
11AF
330
1160
100
AcDbEntity
  8
0
100
AcDbEllipse
 10
45.42808650500941
 20
-39.09180850178012
 30
0.0
 11
9.999999999998937
 21
-17.32050807568938
 31
0.0
210
0.0
220
0.0
230
1.0
 40
0.577350269189625
 41
5.497787143782379
 42
8.639379797372171
  0
LINE
  5
11B0
330
1160
100
AcDbEntity
  8
0
100
AcDbLine
 10
36.94280513077087
 20
-17.86289739765925
 30
0.0
 11
45.42808650500943
 21
-22.7618768832256
 31
0.0
  0
ELLIPSE
  5
11B1
330
1160
100
AcDbEntity
  8
0
100
AcDbEllipse
 10
36.94280513077087
 20
-15.8216559453399
 30
0.0
 11
1.249999999999996
 21
-2.165063509461098
 31
0.0
210
0.0
220
0.0
230
1.0
 40
0.5773502691896249
 41
4.926145112857552
 42
5.497787143782136
  0
ELLIPSE
  5
11B2
330
1160
100
AcDbEntity
  8
0
100
AcDbEllipse
 10
29.51818392831309
 20
-20.92475957613873
 30
0.0
 11
1.249999999999996
 21
-2.165063509461098
 31
0.0
210
0.0
220
0.0
230
1.0
 40
0.577350269189625
 41
4.749591108298421
 42
7.919068341885414
  0
ELLIPSE
  5
11B3
330
1160
100
AcDbEntity
  8
0
100
AcDbEllipse
 10
47.19585345797675
 20
-30.11034611157566
 30
0.0
 11
1.249999999999996
 21
-2.165063509461098
 31
0.0
210
0.0
220
0.0
230
1.0
 40
0.5773502691896249
 41
0.0
 42
6.283185307179586
  0
ELLIPSE
  5
11B4
330
1160
100
AcDbEntity
  8
0
100
AcDbEllipse
 10
54.26692126984221
 20
-44.19491213257898
 30
0.0
 11
1.249999999999996
 21
-2.165063509461098
 31
0.0
210
0.0
220
0.0
230
1.0
 40
0.5773502691896249
 41
0.0
 42
6.283185307179586
  0
ELLIPSE
  5
11B5
330
1160
100
AcDbEntity
  8
0
100
AcDbEllipse
 10
47.19585345797674
 20
-50.11451234430494
 30
0.0
 11
1.249999999999996
 21
-2.165063509461098
 31
0.0
210
0.0
220
0.0
230
1.0
 40
0.5773502691896249
 41
0.0
 42
6.283185307179586
  0
ELLIPSE
  5
11B6
330
1160
100
AcDbEntity
  8
0
100
AcDbEllipse
 10
22.44711611644763
 20
-36.02994632330166
 30
0.0
 11
1.249999999999996
 21
-2.165063509461098
 31
0.0
210
0.0
220
0.0
230
1.0
 40
0.5773502691896249
 41
0.0
 42
6.283185307179586
  0
ELLIPSE
  5
11B7
330
1160
100
AcDbEntity
  8
0
100
AcDbEllipse
 10
29.51818392831309
 20
-48.27739503721757
 30
0.0
 11
1.249999999999996
 21
-2.165063509461098
 31
0.0
210
0.0
220
0.0
230
1.0
 40
0.5773502691896249
 41
0.0
 42
6.283185307179586
  0
ELLIPSE
  5
11B8
330
1160
100
AcDbEntity
  8
0
100
AcDbEllipse
 10
22.44711611644763
 20
-52.3598779418562
 30
0.0
 11
1.249999999999996
 21
-2.165063509461098
 31
0.0
210
0.0
220
0.0
230
1.0
 40
0.5773502691896249
 41
0.0
 42
6.283185307179586
  0
ELLIPSE
  5
11B9
330
1160
100
AcDbEntity
  8
0
100
AcDbEllipse
 10
38.35701869314365
 20
9.285613918187909
 30
0.0
 11
25.74999999999993
 21
-44.60030829489864
 31
0.0
210
0.0
220
0.0
230
1.0
 40
0.5773502691896249
 41
5.258672961118073
 42
5.390786969293506
  0
LINE
  5
11BA
330
1160
100
AcDbEntity
  8
0
100
AcDbLine
 10
34.46793139661796
 20
-30.27811040499484
 30
0.0
 11
34.46793139661796
 21
-30.11034611157513
 31
0.0
  0
ELLIPSE
  5
11BB
330
1160
100
AcDbEntity
  8
0
100
AcDbEllipse
 10
38.3570186931439
 20
-32.35571170912634
 30
0.0
 11
-2.749999999999992
 21
4.763139720814418
 31
0.0
210
0.0
220
0.0
230
1.0
 40
0.5773502691896248
 41
3.92699081698724
 42
7.068583470577034
  0
LINE
  5
11BC
330
1160
100
AcDbEntity
  8
0
100
AcDbLine
 10
42.2461059896699
 20
-34.6010773066776
 30
0.0
 11
42.2461059896699
 21
-39.50005679224397
 31
0.0
  0
ELLIPSE
  5
11BD
330
1160
100
AcDbEntity
  8
0
100
AcDbEllipse
 10
38.3570186931439
 20
-37.2546911946927
 30
0.0
 11
2.749999999999992
 21
-4.763139720814418
 31
0.0
210
0.0
220
0.0
230
1.0
 40
0.5773502691896248
 41
5.497787143782144
 42
7.068583470577035
  0
ELLIPSE
  5
11BE
330
1160
100
AcDbEntity
  8
0
100
AcDbEllipse
 10
38.35701869314365
 20
9.285613918187909
 30
0.0
 11
-31.24999999999668
 21
54.12658773652934
 31
0.0
210
0.0
220
0.0
230
1.0
 40
0.5773502691896251
 41
2.117080307528459
 42
2.356194490192594
  0
ELLIPSE
  5
11BF
330
1160
100
AcDbEntity
  8
0
100
AcDbEllipse
 10
28.81107714712554
 20
-30.41918171869581
 30
0.0
 11
-2.749999999999709
 21
4.763139720814582
 31
0.0
210
0.0
220
0.0
230
1.0
 40
0.5773502691896248
 41
5.258672961118187
 42
8.400265614707981
  0
LINE
  5
11C0
330
1160
100
AcDbEntity
  8
0
100
AcDbLine
 10
61.3379890817088
 20
16.22583485607213
 30
0.0
 11
61.33798908170881
 21
97.46724465838088
 31
0.0
  0
LINE
  5
11C1
330
1160
100
AcDbEntity
  8
0
100
AcDbLine
 10
59.57022212874243
 20
96.44662393222121
 30
0.0
 11
59.57022212874242
 21
15.20521412991248
 31
0.0
  0
LINE
  5
11C2
330
1160
100
AcDbEntity
  8
0
100
AcDbLine
 10
41.53899920848548
 20
87.66928568724811
 30
0.0
 11
37.4731352166618
 21
90.01671335741594
 31
0.0
  0
LINE
  5
11C3
330
1160
100
AcDbEntity
  8
0
100
AcDbLine
 10
58.50956195696262
 20
102.3662241439472
 30
0.0
 11
42.77643607556093
 21
111.4497486067688
 31
0.0
  0
ELLIPSE
  5
11C4
330
1160
100
AcDbEntity
  8
0
100
AcDbEllipse
 10
40.1247856461124
 20
74.60534039240454
 30
0.0
 11
-2.749999999999996
 21
4.763139720814415
 31
0.0
210
0.0
220
0.0
230
1.0
 40
0.5773502691896254
 41
0.3272204132950645
 42
0.7853981633974494
  0
LINE
  5
11C5
330
1160
100
AcDbEntity
  8
0
100
AcDbLine
 10
36.2356983495864
 20
76.85070598995578
 30
0.0
 11
36.2356983495864
 21
71.95172650438941
 31
0.0
  0
ELLIPSE
  5
11C6
330
1160
100
AcDbEntity
  8
0
100
AcDbEllipse
 10
40.1247856461124
 20
69.70636090683817
 30
0.0
 11
2.75000000000028
 21
-4.76313972081425
 31
0.0
210
0.0
220
0.0
230
1.0
 40
0.5773502691896255
 41
3.926990816987
 42
5.497787143781898
  0
ELLIPSE
  5
11C7
330
1160
100
AcDbEntity
  8
0
100
AcDbEllipse
 10
38.73690718896637
 20
23.99789755464679
 30
0.0
 11
25.74999999999732
 21
-44.60030829490015
 31
0.0
210
0.0
220
0.0
230
1.0
 40
0.5773502691896252
 41
2.081475546591658
 42
2.318073480464649
  0
ELLIPSE
  5
11C8
330
1160
100
AcDbEntity
  8
0
100
AcDbEllipse
 10
49.67072719213079
 20
62.48036616562779
 30
0.0
 11
2.749999999999995
 21
-4.763139720814415
 31
0.0
210
0.0
220
0.0
230
1.0
 40
0.5773502691896254
 41
5.223068200181293
 42
5.955964893884519
  0
ELLIPSE
  5
11C9
330
1160
100
AcDbEntity
  8
0
100
AcDbEllipse
 10
48.96362041094325
 20
26.22791797243735
 30
0.0
 11
1.250000000000127
 21
-2.165063509461022
 31
0.0
210
0.0
220
0.0
230
1.0
 40
0.5773502691896254
 41
3.926990816987002
 42
5.497787143781896
  0
ELLIPSE
  5
11CA
330
1160
100
AcDbEntity
  8
0
100
AcDbEllipse
 10
56.0346882228087
 20
30.31040087707598
 30
0.0
 11
1.250000000000127
 21
-2.165063509461022
 31
0.0
210
0.0
220
0.0
230
1.0
 40
0.5773502691896254
 41
3.926990816987002
 42
5.497787143781896
  0
ELLIPSE
  5
11CB
330
1160
100
AcDbEntity
  8
0
100
AcDbEllipse
 10
48.96362041094325
 20
42.55784959099187
 30
0.0
 11
1.250000000000127
 21
-2.165063509461022
 31
0.0
210
0.0
220
0.0
230
1.0
 40
0.5773502691896254
 41
3.926990816987002
 42
5.497787143781896
  0
ELLIPSE
  5
11CC
330
1160
100
AcDbEntity
  8
0
100
AcDbEllipse
 10
56.0346882228087
 20
46.6403324956305
 30
0.0
 11
1.250000000000127
 21
-2.165063509461022
 31
0.0
210
0.0
220
0.0
230
1.0
 40
0.5773502691896254
 41
3.926990816987002
 42
5.497787143781896
  0
ELLIPSE
  5
11CD
330
1160
100
AcDbEntity
  8
0
100
AcDbEllipse
 10
31.28595088127954
 20
67.25687116405561
 30
0.0
 11
1.250000000000127
 21
-2.165063509461022
 31
0.0
210
0.0
220
0.0
230
1.0
 40
0.5773502691896254
 41
3.926990816986998
 42
5.497787143781896
  0
ELLIPSE
  5
11CE
330
1160
100
AcDbEntity
  8
0
100
AcDbEllipse
 10
24.21488306941405
 20
81.34143718505891
 30
0.0
 11
1.249999999999997
 21
-2.165063509461097
 31
0.0
210
0.0
220
0.0
230
0.9999999999999998
 40
0.5773502691896254
 41
5.105012267981411
 42
5.497787143782138
  0
ELLIPSE
  5
11CF
330
1160
100
AcDbEntity
  8
0
100
AcDbEllipse
 10
31.28595088127952
 20
87.26103739678491
 30
0.0
 11
1.249999999999998
 21
-2.165063509461097
 31
0.0
210
0.0
220
0.0
230
1.0
 40
0.5773502691896255
 41
5.009488633178064
 42
5.497787143782136
  0
ELLIPSE
  5
11D0
330
1160
100
AcDbEntity
  8
0
100
AcDbEllipse
 10
48.96362041094324
 20
77.25895428042024
 30
0.0
 11
1.250000000000127
 21
-2.165063509461022
 31
0.0
210
0.0
220
0.0
230
1.0
 40
0.5773502691896254
 41
3.926990816987002
 42
5.497787143781896
  0
ELLIPSE
  5
11D1
330
1160
100
AcDbEntity
  8
0
100
AcDbEllipse
 10
56.0346882228087
 20
81.34143718505885
 30
0.0
 11
1.250000000000127
 21
-2.165063509461022
 31
0.0
210
0.0
220
0.0
230
1.0
 40
0.5773502691896254
 41
3.926990816986995
 42
5.497787143781891
  0
ELLIPSE
  5
11D2
330
1160
100
AcDbEntity
  8
0
100
AcDbEllipse
 10
56.03468822280871
 20
97.67136880361338
 30
0.0
 11
1.250000000000127
 21
-2.165063509461022
 31
0.0
210
0.0
220
0.0
230
1.0
 40
0.5773502691896257
 41
3.926990816987004
 42
5.497787143781896
  0
LINE
  5
11D3
330
1160
100
AcDbEntity
  8
0
100
AcDbLine
 10
-41.01571749504494
 20
63.88882276772876
 30
0.0
 11
-41.01571749504398
 21
-109.2084523889486
 31
0.0
  0
LINE
  5
11D4
330
1160
100
AcDbEntity
  8
0
100
AcDbLine
 10
-34.70114870128799
 20
70.80052708433166
 30
0.0
 11
-38.18729037029876
 21
68.78780225329514
 31
0.0
  0
ELLIPSE
  5
11D5
330
1160
100
AcDbEntity
  8
0
100
AcDbEllipse
 10
-31.82332933961982
 20
60.214588153554
 30
0.0
 11
-2.625
 21
-4.546633369868303
 31
0.0
210
0.0
220
0.0
230
1.0
 40
0.577350269189626
 41
0.3434286642675204
 42
0.7853981633974483
  0
LINE
  5
11D6
330
1160
100
AcDbEntity
  8
0
100
AcDbLine
 10
-29.70200899606017
 20
57.15272597507503
 30
0.0
 11
-31.82332933961982
 21
55.92798110368345
 31
0.0
  0
ELLIPSE
  5
11D7
330
1160
100
AcDbEntity
  8
0
100
AcDbEllipse
 10
-29.7020089960602
 20
61.43933302494558
 30
0.0
 11
-2.625000000000272
 21
-4.546633369868144
 31
0.0
210
0.0
220
0.0
230
0.9999999999999998
 40
0.577350269189626
 41
0.7853981633976943
 42
2.356194490192585
  0
LINE
  5
11D8
330
1160
100
AcDbEntity
  8
0
100
AcDbLine
 10
-25.98969839483082
 20
75.83008526379675
 30
0.0
 11
-25.98969839483082
 21
63.58263654988085
 31
0.0
  0
LINE
  5
11D9
330
1160
100
AcDbEntity
  8
0
100
AcDbLine
 10
35.70536826369546
 20
111.4497486067688
 30
0.0
 11
-25.98969839483081
 21
75.83008526379675
 31
0.0
  0
ELLIPSE
  5
11DA
330
1160
100
AcDbEntity
  8
0
100
AcDbEllipse
 10
29.62424994549214
 20
67.11398426239381
 30
0.0
 11
-12.5
 21
-21.65063509461097
 31
0.0
210
0.0
220
0.0
230
0.9999999999999998
 40
0.5773502691896261
 41
0.0707697366622124
 42
0.7853981633974483
  0
LINE
  5
11DB
330
1160
100
AcDbEntity
  8
0
100
AcDbLine
 10
35.70536826369545
 20
50.21250503718931
 30
0.0
 11
29.62424994549214
 21
46.70156973920066
 31
0.0
  0
LINE
  5
11DC
330
1160
100
AcDbEntity
  8
0
100
AcDbLine
 10
35.70536826369544
 20
19.59388325239958
 30
0.0
 11
35.35181487310319
 21
19.38975910716825
 31
0.0
  0
ELLIPSE
  5
11DD
330
1160
100
AcDbEntity
  8
0
100
AcDbEllipse
 10
29.62424994549216
 20
-39.03057125821052
 30
0.0
 11
-12.5
 21
-21.65063509461096
 31
0.0
210
0.0
220
0.0
230
1.0
 40
0.5773502691896259
 41
0.0707697366622133
 42
0.7853981633974474
  0
LINE
  5
11DE
330
1160
100
AcDbEntity
  8
0
100
AcDbLine
 10
35.70536826369544
 20
-55.93205048341504
 30
0.0
 11
29.62424994549214
 21
-59.44298578140368
 31
0.0
  0
LINE
  5
11DF
330
1160
100
AcDbEntity
  8
0
100
AcDbLine
 10
-39.24795054207761
 20
-110.2290731151082
 30
0.0
 11
-39.24795054207857
 21
62.86820204156912
 31
0.0
  0
LINE
  5
11E0
330
1160
100
AcDbEntity
  8
0
100
AcDbLine
 10
41.00866912259456
 20
110.4291278806091
 30
0.0
 11
56.74179500399625
 21
101.3456034177875
 31
0.0
  0
LINE
  5
11E1
330
1160
100
AcDbEntity
  8
0
100
AcDbLine
 10
37.4731352166618
 20
-69.20011992349059
 30
0.0
 11
-36.41952341733141
 21
-111.8620662769636
 31
0.0
  0
LINE
  5
11E2
330
1160
100
AcDbEntity
  8
0
100
AcDbLine
 10
31.39201689845851
 20
-60.46360650756333
 30
0.0
 11
37.4731352166618
 21
-56.95267120957469
 31
0.0
  0
ELLIPSE
  5
11E3
330
1160
100
AcDbEntity
  8
0
100
AcDbEllipse
 10
31.39201689845852
 20
-40.05119198437018
 30
0.0
 11
-12.49999999999871
 21
-21.6506350946117
 31
0.0
210
0.0
220
0.0
230
1.0
 40
0.5773502691896255
 41
3.926990816986998
 42
7.068583470576792
  0
LINE
  5
11E4
330
1160
100
AcDbEntity
  8
0
100
AcDbLine
 10
37.47313521666181
 20
-16.12784216318843
 30
0.0
 11
31.39201689845853
 21
-19.63877746117706
 31
0.0
  0
LINE
  5
11E5
330
1160
100
AcDbEntity
  8
0
100
AcDbLine
 10
37.11958182606956
 20
18.36913838100859
 30
0.0
 11
37.47313521666181
 21
18.57326252623993
 31
0.0
  0
ELLIPSE
  5
11E6
330
1160
100
AcDbEntity
  8
0
100
AcDbEllipse
 10
37.11958182606956
 20
20.4103798333279
 30
0.0
 11
-1.249999999999869
 21
-2.165063509461167
 31
0.0
210
0.0
220
0.0
230
1.0
 40
0.5773502691896261
 41
3.926990816986998
 42
7.068583470576794
  0
LINE
  5
11E7
330
1160
100
AcDbEntity
  8
0
100
AcDbLine
 10
37.47313521666182
 20
22.65574543087856
 30
0.0
 11
37.11958182606956
 21
22.45162128564722
 31
0.0
  0
LINE
  5
11E8
330
1160
100
AcDbEntity
  8
0
100
AcDbLine
 10
31.39201689845851
 20
45.68094901304101
 30
0.0
 11
37.47313521666182
 21
49.19188431102966
 31
0.0
  0
ELLIPSE
  5
11E9
330
1160
100
AcDbEntity
  8
0
100
AcDbEllipse
 10
31.39201689845851
 20
66.09336353623416
 30
0.0
 11
-12.49999999999871
 21
-21.65063509461171
 31
0.0
210
0.0
220
0.0
230
1.0
 40
0.5773502691896259
 41
3.926990816987
 42
7.068583470576793
  0
LINE
  5
11EA
330
1160
100
AcDbEntity
  8
0
100
AcDbLine
 10
37.47313521666182
 20
90.01671335741598
 30
0.0
 11
31.39201689845851
 21
86.50577805942729
 31
0.0
  0
LINE
  5
11EB
330
1160
100
AcDbEntity
  8
0
100
AcDbLine
 10
-24.22193144186444
 20
74.8094645376371
 30
0.0
 11
37.47313521666182
 21
110.4291278806091
 31
0.0
  0
LINE
  5
11EC
330
1160
100
AcDbEntity
  8
0
100
AcDbLine
 10
-24.22193144186444
 20
62.56201582372121
 30
0.0
 11
-24.22193144186444
 21
74.8094645376371
 31
0.0
  0
ELLIPSE
  5
11ED
330
1160
100
AcDbEntity
  8
0
100
AcDbEllipse
 10
-27.93424204309383
 20
60.41871229878593
 30
0.0
 11
2.624999999999729
 21
4.546633369868458
 31
0.0
210
0.0
220
0.0
230
1.0
 40
0.577350269189626
 41
3.926990816987004
 42
5.497787143781897
  0
LINE
  5
11EE
330
1160
100
AcDbEntity
  8
0
100
AcDbLine
 10
-30.05556238665346
 20
54.9073603775238
 30
0.0
 11
-27.93424204309381
 21
56.13210524891538
 31
0.0
  0
ELLIPSE
  5
11EF
330
1160
100
AcDbEntity
  8
0
100
AcDbEllipse
 10
-30.05556238665346
 20
59.19396742739436
 30
0.0
 11
-2.625000000000001
 21
-4.546633369868303
 31
0.0
210
0.0
220
0.0
230
0.9999999999999998
 40
0.5773502691896259
 41
4.369901861060881
 42
7.068583470577034
  0
LINE
  5
11F0
330
1160
100
AcDbEntity
  8
0
100
AcDbLine
 10
-31.64655264432319
 20
66.44037458312792
 30
0.0
 11
-31.6465526443232
 21
62.14839212005806
 31
0.0
  0
LINE
  5
11F1
330
1160
100
AcDbEntity
  8
0
100
AcDbLine
 10
-32.93338174832162
 20
69.77990635817199
 30
0.0
 11
-31.64655264432319
 21
66.44037458312792
 31
0.0
  0
LINE
  5
11F2
330
1160
100
AcDbEntity
  8
0
100
AcDbLine
 10
-36.4195234173324
 20
67.76718152713548
 30
0.0
 11
-32.93338174832162
 21
69.77990635817199
 31
0.0
  0
LINE
  5
11F3
330
1160
100
AcDbEntity
  8
0
100
AcDbLine
 10
29.62424994549214
 20
-59.44298578140368
 30
0.0
 11
31.39201689845851
 21
-60.46360650756333
 31
0.0
  0
LINE
  5
11F4
330
1160
100
AcDbEntity
  8
0
100
AcDbLine
 10
-34.70114870128799
 20
70.80052708433166
 30
0.0
 11
-32.93338174832162
 21
69.77990635817199
 31
0.0
  0
LINE
  5
11F5
330
1160
100
AcDbEntity
  8
0
100
AcDbLine
 10
-31.82332933961982
 20
55.92798110368345
 30
0.0
 11
-30.05556238665346
 21
54.9073603775238
 31
0.0
  0
LINE
  5
11F6
330
1160
100
AcDbEntity
  8
0
100
AcDbLine
 10
-29.70200899606017
 20
57.15272597507503
 30
0.0
 11
-27.93424204309381
 21
56.13210524891538
 31
0.0
  0
LINE
  5
11F7
330
1160
100
AcDbEntity
  8
0
100
AcDbLine
 10
-25.98969839483082
 20
63.58263654988085
 30
0.0
 11
-24.22193144186444
 21
62.56201582372121
 31
0.0
  0
LINE
  5
11F8
330
1160
100
AcDbEntity
  8
0
100
AcDbLine
 10
-25.98969839483082
 20
75.83008526379675
 30
0.0
 11
-24.22193144186444
 21
74.8094645376371
 31
0.0
  0
LINE
  5
11F9
330
1160
100
AcDbEntity
  8
0
100
AcDbLine
 10
29.62424994549214
 20
46.70156973920066
 30
0.0
 11
31.39201689845851
 21
45.68094901304101
 31
0.0
  0
LINE
  5
11FA
330
1160
100
AcDbEntity
  8
0
100
AcDbLine
 10
35.35181487310319
 20
19.38975910716825
 30
0.0
 11
37.11958182606956
 21
18.36913838100859
 31
0.0
  0
LINE
  5
11FB
330
1160
100
AcDbEntity
  8
0
100
AcDbLine
 10
36.94280513077087
 20
-17.86289739765925
 30
0.0
 11
38.71057208373724
 21
-16.8422766714996
 31
0.0
  0
ELLIPSE
  5
11FC
330
1160
100
AcDbEntity
  8
0
100
AcDbEllipse
 10
38.71057208373724
 20
-14.80103521918025
 30
0.0
 11
-1.249999999999866
 21
2.165063509461172
 31
0.0
210
0.0
220
0.0
230
0.9999999999999998
 40
0.577350269189625
 41
1.779825944058291
 42
2.356194490192589
  0
LINE
  5
11FD
330
1160
100
AcDbEntity
  8
0
100
AcDbLine
 10
47.1958534579758
 20
-21.74125615706593
 30
0.0
 11
38.71057208373724
 21
-16.8422766714996
 31
0.0
  0
LINE
  5
11FE
330
1160
100
AcDbEntity
  8
0
100
AcDbLine
 10
45.42808650500943
 20
-22.7618768832256
 30
0.0
 11
47.1958534579758
 21
-21.74125615706593
 31
0.0
  0
ELLIPSE
  5
11FF
330
1160
100
AcDbEntity
  8
0
100
AcDbEllipse
 10
47.19585345797582
 20
-38.07118777562047
 30
0.0
 11
9.999999999999975
 21
-17.32050807568879
 31
0.0
210
0.0
220
0.0
230
1.0
 40
0.577350269189625
 41
0.0
 42
2.356194490192343
  0
ELLIPSE
  5
1200
330
1160
100
AcDbEntity
  8
0
100
AcDbEllipse
 10
31.28595088127948
 20
-19.90413884997908
 30
0.0
 11
1.249999999999996
 21
-2.165063509461098
 31
0.0
210
0.0
220
0.0
230
1.0
 40
0.5773502691896249
 41
4.664338008305344
 42
5.497787143782129
  0
ELLIPSE
  5
1201
330
1160
100
AcDbEntity
  8
0
100
AcDbEllipse
 10
48.96362041094313
 20
-29.08972538541601
 30
0.0
 11
1.250000000000125
 21
-2.165063509461023
 31
0.0
210
0.0
220
0.0
230
1.0
 40
0.577350269189625
 41
3.926990816987
 42
5.497787143781886
  0
ELLIPSE
  5
1202
330
1160
100
AcDbEntity
  8
0
100
AcDbEllipse
 10
56.03468822280858
 20
-43.1742914064193
 30
0.0
 11
1.250000000000125
 21
-2.165063509461023
 31
0.0
210
0.0
220
0.0
230
1.0
 40
0.577350269189625
 41
3.926990816987
 42
5.497787143781896
  0
ELLIPSE
  5
1203
330
1160
100
AcDbEntity
  8
0
100
AcDbEllipse
 10
48.9636204109431
 20
-49.09389161814529
 30
0.0
 11
1.250000000000125
 21
-2.165063509461023
 31
0.0
210
0.0
220
0.0
230
1.0
 40
0.577350269189625
 41
3.926990816987
 42
5.497787143781896
  0
ELLIPSE
  5
1204
330
1160
100
AcDbEntity
  8
0
100
AcDbEllipse
 10
24.214883069414
 20
-35.00932559714201
 30
0.0
 11
1.250000000000125
 21
-2.165063509461023
 31
0.0
210
0.0
220
0.0
230
1.0
 40
0.577350269189625
 41
3.926990816987
 42
5.497787143781896
  0
ELLIPSE
  5
1205
330
1160
100
AcDbEntity
  8
0
100
AcDbEllipse
 10
31.28595088127946
 20
-47.25677431105792
 30
0.0
 11
1.250000000000125
 21
-2.165063509461023
 31
0.0
210
0.0
220
0.0
230
1.0
 40
0.577350269189625
 41
3.926990816987
 42
5.497787143781896
  0
ELLIPSE
  5
1206
330
1160
100
AcDbEntity
  8
0
100
AcDbEllipse
 10
24.214883069414
 20
-51.33925721569655
 30
0.0
 11
1.250000000000125
 21
-2.165063509461023
 31
0.0
210
0.0
220
0.0
230
1.0
 40
0.577350269189625
 41
3.926990816987
 42
5.497787143781896
  0
LINE
  5
1207
330
1160
100
AcDbEntity
  8
0
100
AcDbLine
 10
36.23569834958433
 20
-29.08972538541546
 30
0.0
 11
36.23569834958433
 21
-29.25748967883518
 31
0.0
  0
LINE
  5
1208
330
1160
100
AcDbEntity
  8
0
100
AcDbLine
 10
34.46793139661796
 20
-30.11034611157513
 30
0.0
 11
36.23569834958433
 21
-29.08972538541546
 31
0.0
  0
LINE
  5
1209
330
1160
100
AcDbEntity
  8
0
100
AcDbLine
 10
34.46793139661796
 20
-30.27811040499484
 30
0.0
 11
36.23569834958433
 21
-29.25748967883518
 31
0.0
  0
ELLIPSE
  5
120A
330
1160
100
AcDbEntity
  8
0
100
AcDbEllipse
 10
40.12478564611027
 20
-31.33509098296669
 30
0.0
 11
-2.749999999999992
 21
4.763139720814418
 31
0.0
210
0.0
220
0.0
230
1.0
 40
0.5773502691896248
 41
0.3272204132950634
 42
0.7853981633974496
  0
ELLIPSE
  5
120B
330
1160
100
AcDbEntity
  8
0
100
AcDbEllipse
 10
40.12478564611027
 20
-36.23407046853305
 30
0.0
 11
2.749999999999992
 21
-4.763139720814419
 31
0.0
210
0.0
220
0.0
230
0.9999999999999998
 40
0.5773502691896249
 41
5.497787143782145
 42
5.955964893884518
  0
LINE
  5
120C
330
1160
100
AcDbEntity
  8
0
100
AcDbLine
 10
38.35701869314392
 20
-41.74542238979521
 30
0.0
 11
40.12478564611028
 21
-40.72480166363554
 31
0.0
  0
ELLIPSE
  5
120D
330
1160
100
AcDbEntity
  8
0
100
AcDbEllipse
 10
40.12478564611001
 20
10.30623464434756
 30
0.0
 11
31.24999999999992
 21
-54.12658773652744
 31
0.0
210
0.0
220
0.0
230
0.9999999999999998
 40
0.577350269189625
 41
5.258672961118073
 42
5.497787143782145
  0
LINE
  5
120E
330
1160
100
AcDbEntity
  8
0
100
AcDbLine
 10
27.88997752426414
 20
-34.25034620997407
 30
0.0
 11
29.65774447723051
 21
-33.22972548381442
 31
0.0
  0
ELLIPSE
  5
120F
330
1160
100
AcDbEntity
  8
0
100
AcDbEllipse
 10
30.57884410009192
 20
-29.39856099253616
 30
0.0
 11
-2.749999999999992
 21
4.763139720814418
 31
0.0
210
0.0
220
0.0
230
1.0
 40
0.5773502691896248
 41
0.3272204132950633
 42
2.117080307528276
  0
ELLIPSE
  5
1210
330
1160
100
AcDbEntity
  8
0
100
AcDbEllipse
 10
38.71057208373724
 20
-51.54338136092795
 30
0.0
 11
-1.249999999999994
 21
2.165063509461095
 31
0.0
210
0.0
220
0.0
230
1.0
 40
0.5773502691896249
 41
0.7853981633974528
 42
1.580796993582405
  0
LINE
  5
1211
330
1160
100
AcDbEntity
  8
0
100
AcDbLine
 10
41.53899920848548
 20
87.66928568724811
 30
0.0
 11
39.77123225551912
 21
86.64866496108846
 31
0.0
  0
ELLIPSE
  5
1212
330
1160
100
AcDbEntity
  8
0
100
AcDbEllipse
 10
39.77123225551912
 20
88.68990641340781
 30
0.0
 11
1.249999999999998
 21
-2.165063509461097
 31
0.0
210
0.0
220
0.0
230
1.0
 40
0.5773502691896254
 41
5.49778714378214
 42
7.86398230076199
  0
LINE
  5
1213
330
1160
100
AcDbEntity
  8
0
100
AcDbLine
 10
35.70536826369541
 20
88.99609263125629
 30
0.0
 11
39.77123225551912
 21
86.64866496108846
 31
0.0
  0
ELLIPSE
  5
1214
330
1160
100
AcDbEntity
  8
0
100
AcDbEllipse
 10
31.28595088128056
 20
75.21771282810033
 30
0.0
 11
-9.999999999998951
 21
17.32050807568938
 31
0.0
210
0.0
220
0.0
230
0.9999999999999998
 40
0.5773502691896254
 41
1.32748918869675
 42
2.356194490192587
  0
LINE
  5
1215
330
1160
100
AcDbEntity
  8
0
100
AcDbLine
 10
39.77123225551912
 20
53.98880172397944
 30
0.0
 11
31.28595088128055
 21
58.8877812095458
 31
0.0
  0
LINE
  5
1216
330
1160
100
AcDbEntity
  8
0
100
AcDbLine
 10
56.74179500399624
 20
13.57222096805701
 30
0.0
 11
41.00866912259454
 21
22.65574543087856
 31
0.0
  0
ELLIPSE
  5
1217
330
1160
100
AcDbEntity
  8
0
100
AcDbEllipse
 10
54.26692126984234
 20
96.65074807745373
 30
0.0
 11
-1.249999999999998
 21
2.165063509461097
 31
0.0
210
0.0
220
0.0
230
1.0
 40
0.5773502691896254
 41
0.0
 42
6.283185307179586
  0
ELLIPSE
  5
1218
330
1160
100
AcDbEntity
  8
0
100
AcDbEllipse
 10
54.26692126984234
 20
80.3208164588992
 30
0.0
 11
-1.249999999999998
 21
2.165063509461097
 31
0.0
210
0.0
220
0.0
230
1.0
 40
0.5773502691896254
 41
0.0
 42
6.283185307179586
  0
ELLIPSE
  5
1219
330
1160
100
AcDbEntity
  8
0
100
AcDbEllipse
 10
47.19585345797686
 20
76.23833355426057
 30
0.0
 11
-1.249999999999998
 21
2.165063509461097
 31
0.0
210
0.0
220
0.0
230
1.0
 40
0.5773502691896254
 41
0.0
 42
6.283185307179586
  0
ELLIPSE
  5
121A
330
1160
100
AcDbEntity
  8
0
100
AcDbEllipse
 10
29.51818392831315
 20
86.24041667062526
 30
0.0
 11
1.249999999999998
 21
-2.165063509461097
 31
0.0
210
0.0
220
0.0
230
1.0
 40
0.5773502691896254
 41
5.079830031760321
 42
7.566014659316054
  0
ELLIPSE
  5
121B
330
1160
100
AcDbEntity
  8
0
100
AcDbEllipse
 10
22.44711611644768
 20
80.32081645889924
 30
0.0
 11
1.249999999999998
 21
-2.165063509461097
 31
0.0
210
0.0
220
0.0
230
1.0
 40
0.5773502691896255
 41
5.420872521458414
 42
7.556830512676053
  0
ELLIPSE
  5
121C
330
1160
100
AcDbEntity
  8
0
100
AcDbEllipse
 10
29.51818392831316
 20
66.23625043789596
 30
0.0
 11
-1.249999999999998
 21
2.165063509461097
 31
0.0
210
0.0
220
0.0
230
1.0
 40
0.5773502691896254
 41
0.0
 42
6.283185307179586
  0
ELLIPSE
  5
121D
330
1160
100
AcDbEntity
  8
0
100
AcDbEllipse
 10
54.26692126984234
 20
45.61971176947086
 30
0.0
 11
-1.249999999999998
 21
2.165063509461097
 31
0.0
210
0.0
220
0.0
230
1.0
 40
0.5773502691896254
 41
0.0
 42
6.283185307179586
  0
ELLIPSE
  5
121E
330
1160
100
AcDbEntity
  8
0
100
AcDbEllipse
 10
47.19585345797688
 20
41.53722886483222
 30
0.0
 11
-1.249999999999998
 21
2.165063509461097
 31
0.0
210
0.0
220
0.0
230
1.0
 40
0.5773502691896254
 41
0.0
 42
6.283185307179586
  0
ELLIPSE
  5
121F
330
1160
100
AcDbEntity
  8
0
100
AcDbEllipse
 10
54.26692126984234
 20
29.28978015091633
 30
0.0
 11
-1.249999999999998
 21
2.165063509461097
 31
0.0
210
0.0
220
0.0
230
1.0
 40
0.5773502691896254
 41
0.0
 42
6.283185307179586
  0
ELLIPSE
  5
1220
330
1160
100
AcDbEntity
  8
0
100
AcDbEllipse
 10
47.19585345797688
 20
25.2072972462777
 30
0.0
 11
-1.249999999999998
 21
2.165063509461097
 31
0.0
210
0.0
220
0.0
230
1.0
 40
0.5773502691896254
 41
0.0
 42
6.283185307179586
  0
LINE
  5
1221
330
1160
100
AcDbEntity
  8
0
100
AcDbLine
 10
34.46793139662002
 20
70.93110577822976
 30
0.0
 11
34.46793139662003
 21
75.83008526379612
 31
0.0
  0
LINE
  5
1222
330
1160
100
AcDbEntity
  8
0
100
AcDbLine
 10
36.2356983495864
 20
71.95172650438941
 30
0.0
 11
34.46793139662002
 21
70.93110577822976
 31
0.0
  0
LINE
  5
1223
330
1160
100
AcDbEntity
  8
0
100
AcDbLine
 10
36.2356983495864
 20
76.85070598995578
 30
0.0
 11
34.46793139662003
 21
75.83008526379612
 31
0.0
  0
ELLIPSE
  5
1224
330
1160
100
AcDbEntity
  8
0
100
AcDbEllipse
 10
38.35701869314604
 20
68.6857401806785
 30
0.0
 11
-2.749999999999713
 21
4.76313972081458
 31
0.0
210
0.0
220
0.0
230
1.0
 40
0.5773502691896254
 41
0.785398163397689
 42
2.356194490192587
  0
LINE
  5
1225
330
1160
100
AcDbEntity
  8
0
100
AcDbLine
 10
40.1247856461124
 20
65.21562971173567
 30
0.0
 11
38.35701869314604
 21
64.19500898557602
 31
0.0
  0
ELLIPSE
  5
1226
330
1160
100
AcDbEntity
  8
0
100
AcDbEllipse
 10
36.969140236
 20
22.97727682848714
 30
0.0
 11
-25.74999999999996
 21
44.60030829489859
 31
0.0
210
0.0
220
0.0
230
1.0
 40
0.5773502691896254
 41
5.223068200181294
 42
5.459666134054222
  0
LINE
  5
1227
330
1160
100
AcDbEntity
  8
0
100
AcDbLine
 10
48.61570947252721
 20
58.76714551018226
 30
0.0
 11
46.84794251956083
 21
57.74652478402261
 31
0.0
  0
ELLIPSE
  5
1228
330
1160
100
AcDbEntity
  8
0
100
AcDbEllipse
 10
47.90296023916441
 20
61.45974543946813
 30
0.0
 11
2.749999999999712
 21
-4.763139720814578
 31
0.0
210
0.0
220
0.0
230
1.0
 40
0.5773502691896254
 41
5.223068200181426
 42
8.498564006599757
  0
ELLIPSE
  5
1229
330
1160
100
AcDbEntity
  8
0
100
AcDbEllipse
 10
42.24610598967205
 20
18.6460905608722
 30
0.0
 11
31.24999999999672
 21
-54.1265877365293
 31
0.0
210
0.0
220
0.0
230
1.0
 40
0.5773502691896254
 41
2.215378699420208
 42
2.356194490192587
  0
LINE
  5
122A
330
1160
100
AcDbEntity
  8
0
100
AcDbLine
 10
42.24610598967206
 20
71.33935406869361
 30
0.0
 11
42.24610598967206
 21
69.67712686885507
 31
0.0
  0
ELLIPSE
  5
122B
330
1160
100
AcDbEntity
  8
0
100
AcDbEllipse
 10
38.35701869314603
 20
73.58471966624489
 30
0.0
 11
-2.749999999999995
 21
4.763139720814414
 31
0.0
210
0.0
220
0.0
230
1.0
 40
0.5773502691896255
 41
3.926990816987241
 42
7.068583470577035
  0
ELLIPSE
  5
122C
330
1160
100
AcDbEntity
  8
0
100
AcDbEllipse
 10
39.77123225551912
 20
51.94756027166014
 30
0.0
 11
1.249999999999998
 21
-2.165063509461097
 31
0.0
210
0.0
220
0.0
230
1.0
 40
0.5773502691896254
 41
6.273184640392079
 42
8.639379797371933
  0
LINE
  5
122D
330
1160
100
AcDbEntity
  8
0
100
AcDbLine
 10
55.42808650500939
 20
-56.41231657746887
 30
0.0
 11
57.19585345797576
 21
-55.39169585130922
 31
0.0
  0
LINE
  5
122E
330
1160
100
AcDbEntity
  8
0
100
AcDbLine
 10
35.70536826369542
 20
-55.93205048341504
 30
0.0
 11
35.70536826369544
 21
-53.3073055524889
 31
0.0
  0
LINE
  5
122F
330
1160
100
AcDbEntity
  8
0
100
AcDbLine
 10
35.70536826369546
 20
19.59388325239958
 30
0.0
 11
35.70536826369546
 21
20.81862812378961
 31
0.0
  0
LINE
  5
1230
330
1160
100
AcDbEntity
  8
0
100
AcDbLine
 10
37.4731352166618
 20
-69.20011992349059
 30
0.0
 11
37.4731352166618
 21
-56.95267120957469
 31
0.0
  0
LINE
  5
1231
330
1160
100
AcDbEntity
  8
0
100
AcDbLine
 10
37.47313521666181
 20
-16.12784216318843
 30
0.0
 11
37.47313521666181
 21
18.57326252623993
 31
0.0
  0
ELLIPSE
  5
1232
330
1160
100
AcDbEntity
  8
0
100
AcDbEllipse
 10
33.93760131072908
 20
20.61450397855925
 30
0.0
 11
2.5
 21
-0.0000000000000006
 31
0.0
210
0.0
220
0.0
230
1.0
 40
0.5773502691896257
 41
5.497787143782131
 42
6.857406926365317
  0
ELLIPSE
  5
1233
330
1160
100
AcDbEntity
  8
0
100
AcDbEllipse
 10
33.93760131072908
 20
20.61450397855925
 30
0.0
 11
5.0
 21
-0.0000000000000006
 31
0.0
210
0.0
220
0.0
230
1.0
 40
0.5773502691896258
 41
5.497787143782135
 42
7.068583470577032
  0
ELLIPSE
  5
1234
330
1160
100
AcDbEntity
  8
0
100
AcDbEllipse
 10
33.93760131072907
 20
-14.08660071086911
 30
0.0
 11
5.0
 21
-0.0000000000000011
 31
0.0
210
0.0
220
0.0
230
1.0
 40
0.5773502691896257
 41
5.497787143782136
 42
6.283185307179587
  0
LINE
  5
1235
330
1160
100
AcDbEntity
  8
0
100
AcDbLine
 10
37.47313521666181
 20
18.57326252623993
 30
0.0
 11
35.70536826369544
 21
19.59388325239958
 31
0.0
  0
ELLIPSE
  5
1236
330
1160
100
AcDbEntity
  8
0
100
AcDbEllipse
 10
33.93760131072906
 20
-67.15887847117125
 30
0.0
 11
5.0
 21
-0.0000000000000017
 31
0.0
210
0.0
220
0.0
230
1.0
 40
0.5773502691896257
 41
5.497787143782138
 42
6.283185307179587
  0
ELLIPSE
  5
1237
330
1160
100
AcDbEntity
  8
0
100
AcDbEllipse
 10
33.93760131072907
 20
-54.91142975725539
 30
0.0
 11
5.000000000000005
 21
0.0000000000000007
 31
0.0
210
0.0
220
0.0
230
1.0
 40
0.5773502691896255
 41
5.497787143782137
 42
6.54498469497916
  0
LINE
  5
1238
330
1160
100
AcDbEntity
  8
0
100
AcDbLine
 10
36.35241587645146
 20
-54.53785664385143
 30
0.0
 11
38.76723044217385
 21
-54.16428353044749
 31
0.0
  0
ELLIPSE
  5
1239
330
1160
100
AcDbEntity
  8
0
100
AcDbEllipse
 10
33.93760131072907
 20
-54.91142975725539
 30
0.0
 11
2.5
 21
-0.0000000000000004
 31
0.0
210
0.0
220
0.0
230
1.0
 40
0.5773502691896257
 41
5.497787143782137
 42
6.544984694979165
  0
LINE
  5
123A
330
1160
100
AcDbEntity
  8
0
100
AcDbLine
 10
37.4731352166618
 20
-56.95267120957469
 30
0.0
 11
35.70536826369544
 21
-55.93205048341504
 31
0.0
  0
SPLINE
  5
123B
330
1160
100
AcDbEntity
  8
0
100
AcDbSpline
210
0.0
220
0.0
230
1.0
 70
     8
 71
     3
 72
    10
 73
     6
 74
     0
 42
0.000000001
 43
0.0000000001
 40
0.0
 40
0.0
 40
0.0
 40
0.0
 40
0.0575824048770356
 40
0.0575824048770356
 40
0.0969870129533447
 40
0.0969870129533447
 40
0.0969870129533447
 40
0.0969870129533447
 10
37.47313521666181
 20
-52.28668482632921
 30
0.0
 10
37.58683835051672
 20
-52.4379065772503
 30
0.0
 10
37.90554574212134
 20
-52.83391681594737
 30
0.0
 10
38.46578882796629
 20
-53.61480558662266
 30
0.0
 10
38.64761605072245
 20
-53.90655299599609
 30
0.0
 10
38.76723044217385
 20
-54.16428353044749
 30
0.0
  0
LINE
  5
123C
330
1160
100
AcDbEntity
  8
0
100
AcDbLine
 10
36.28922745174949
 20
-52.97021429309707
 30
0.0
 11
37.47313521666181
 21
-52.28668482632925
 31
0.0
  0
LINE
  5
123D
330
1160
100
AcDbEntity
  8
0
100
AcDbLine
 10
35.70536826369544
 20
-53.3073055524889
 30
0.0
 11
36.28922745174949
 21
-52.97021429309707
 31
0.0
  0
SPLINE
  5
123E
330
1160
100
AcDbEntity
  8
0
100
AcDbSpline
210
0.0
220
0.0
230
1.0
 70
     8
 71
     3
 72
    12
 73
     8
 74
     0
 42
0.000000001
 43
0.0000000001
 40
0.0
 40
0.0
 40
0.0
 40
0.0
 40
0.0483939315705765
 40
0.0483939315705765
 40
0.0973081656916049
 40
0.0973081656916049
 40
0.1727322110451277
 40
0.1727322110451277
 40
0.1727322110451277
 40
0.1727322110451277
 10
36.35241587645146
 20
-54.53785664385143
 30
0.0
 10
36.31066497261102
 20
-54.44789993617532
 30
0.0
 10
36.25446409778484
 20
-54.33938448855053
 30
0.0
 10
36.12079539136843
 20
-54.09247890900934
 30
0.0
 10
36.0454498079568
 20
-53.95774102470413
 30
0.0
 10
35.85001423610896
 20
-53.5991156945702
 30
0.0
 10
35.75282675849907
 20
-53.40626869287328
 30
0.0
 10
35.70536826369544
 20
-53.30730555248885
 30
0.0
  0
LINE
  5
123F
330
1160
100
AcDbEntity
  8
0
100
AcDbLine
 10
38.93760131072907
 20
-14.08660071086913
 30
0.0
 11
38.93760131072908
 21
20.61450397855927
 31
0.0
  0
LINE
  5
1240
330
1160
100
AcDbEntity
  8
0
100
AcDbLine
 10
38.93760131072906
 20
-67.15887847117122
 30
0.0
 11
38.93760131072907
 21
-54.91142975725539
 31
0.0
  0
ELLIPSE
  5
1241
330
1160
100
AcDbEntity
  8
0
100
AcDbEllipse
 10
-29.34845560546693
 20
36.74031145188187
 30
0.0
 11
2.625
 21
4.546633369868302
 31
0.0
210
0.0
220
0.0
230
1.0
 40
0.5773502691896258
 41
3.141592653589793
 42
6.283185307179584
  0
ELLIPSE
  5
1242
330
1160
100
AcDbEntity
  8
0
100
AcDbEllipse
 10
-27.93424204309383
 20
35.92381487095415
 30
0.0
 11
3.625000000000002
 21
6.278684177437177
 31
0.0
210
0.0
220
0.0
230
1.0
 40
0.5773502691896258
 41
0.0
 42
6.283185307179586
  0
ELLIPSE
  5
1243
330
1160
100
AcDbEntity
  8
0
100
AcDbEllipse
 10
-27.93424204309383
 20
11.42891744312235
 30
0.0
 11
3.625000000000002
 21
6.278684177437177
 31
0.0
210
0.0
220
0.0
230
1.0
 40
0.5773502691896258
 41
0.0
 42
6.283185307179586
  0
ELLIPSE
  5
1244
330
1160
100
AcDbEntity
  8
0
100
AcDbEllipse
 10
-27.93424204309385
 20
-37.56087741254119
 30
0.0
 11
3.625000000000002
 21
6.278684177437177
 31
0.0
210
0.0
220
0.0
230
1.0
 40
0.5773502691896258
 41
0.0
 42
6.283185307179586
  0
ELLIPSE
  5
1245
330
1160
100
AcDbEntity
  8
0
100
AcDbEllipse
 10
-27.93424204309385
 20
-86.55067226820472
 30
0.0
 11
3.625000000000002
 21
6.278684177437177
 31
0.0
210
0.0
220
0.0
230
1.0
 40
0.5773502691896258
 41
0.0
 42
6.283185307179586
  0
ELLIPSE
  5
1246
330
1160
100
AcDbEntity
  8
0
100
AcDbEllipse
 10
-27.93424204309385
 20
-62.05577484037298
 30
0.0
 11
3.625000000000002
 21
6.278684177437177
 31
0.0
210
0.0
220
0.0
230
1.0
 40
0.5773502691896258
 41
0.0
 42
6.283185307179586
  0
ELLIPSE
  5
1247
330
1160
100
AcDbEntity
  8
0
100
AcDbEllipse
 10
-27.93424204309385
 20
-13.06597998470941
 30
0.0
 11
3.625
 21
6.278684177437177
 31
0.0
210
0.0
220
0.0
230
0.9999999999999998
 40
0.577350269189626
 41
0.0
 42
6.283185307179586
  0
ELLIPSE
  5
1248
330
1160
100
AcDbEntity
  8
0
100
AcDbEllipse
 10
-29.34845560546693
 20
12.24541402405009
 30
0.0
 11
2.625
 21
4.546633369868302
 31
0.0
210
0.0
220
0.0
230
1.0
 40
0.5773502691896258
 41
3.141592653589791
 42
6.283185307179583
  0
ELLIPSE
  5
1249
330
1160
100
AcDbEntity
  8
0
100
AcDbEllipse
 10
-29.34845560546694
 20
-12.24948340378168
 30
0.0
 11
2.625
 21
4.546633369868302
 31
0.0
210
0.0
220
0.0
230
1.0
 40
0.5773502691896258
 41
3.141592653589791
 42
6.283185307179583
  0
ELLIPSE
  5
124A
330
1160
100
AcDbEntity
  8
0
100
AcDbEllipse
 10
-29.34845560546694
 20
-36.74438083161347
 30
0.0
 11
2.625
 21
4.546633369868302
 31
0.0
210
0.0
220
0.0
230
1.0
 40
0.5773502691896258
 41
3.141592653589791
 42
6.283185307179583
  0
ELLIPSE
  5
124B
330
1160
100
AcDbEntity
  8
0
100
AcDbEllipse
 10
-29.34845560546694
 20
-61.23927825944526
 30
0.0
 11
2.625
 21
4.546633369868302
 31
0.0
210
0.0
220
0.0
230
1.0
 40
0.5773502691896258
 41
3.141592653589792
 42
6.283185307179584
  0
ELLIPSE
  5
124C
330
1160
100
AcDbEntity
  8
0
100
AcDbEllipse
 10
-29.34845560546694
 20
-85.734175687277
 30
0.0
 11
2.625
 21
4.546633369868302
 31
0.0
210
0.0
220
0.0
230
1.0
 40
0.5773502691896258
 41
3.141592653589789
 42
6.283185307179582
  0
SPLINE
  5
124D
330
1160
100
AcDbEntity
  8
0
100
AcDbSpline
210
0.0
220
0.0
230
1.0
 70
     8
 71
     3
 72
    30
 73
    26
 74
     0
 42
0.000000001
 43
0.0000000001
 40
2.356194490192344
 40
2.356194490192344
 40
2.356194490192344
 40
2.356194490192344
 40
2.670353755551324
 40
2.670353755551324
 40
2.986263682378289
 40
2.986263682378289
 40
3.244478731431272
 40
3.244478731431272
 40
3.510027841487826
 40
3.510027841487826
 40
3.786241626147743
 40
3.786241626147743
 40
4.068665611876249
 40
4.068665611876249
 40
4.351078978469509
 40
4.351078978469509
 40
4.627055058509507
 40
4.627055058509507
 40
4.891846801117258
 40
4.891846801117258
 40
5.150321741976457
 40
5.150321741976457
 40
5.450035055437536
 40
5.450035055437536
 40
5.497787143782137
 40
5.497787143782137
 40
5.497787143782137
 40
5.497787143782137
 10
-31.97345560546693
 20
32.19367808201355
 30
0.0
 10
-32.03890545241671
 20
32.23146556876845
 30
0.0
 10
-32.1067366266288
 20
32.28512781042236
 30
0.0
 10
-32.2843055762675
 20
32.58501994991173
 30
0.0
 10
-32.38238568746031
 20
32.8368537113669
 30
0.0
 10
-32.47720969804703
 20
33.48134125832017
 30
0.0
 10
-32.48891954531377
 20
33.83648433260934
 30
0.0
 10
-32.42024072867657
 20
34.6442034960044
 30
0.0
 10
-32.33760869474758
 20
35.09874482101775
 30
0.0
 10
-32.06735906816667
 20
36.06307825933834
 30
0.0
 10
-31.87588498233864
 20
36.57422276770845
 30
0.0
 10
-31.39542744778126
 20
37.58956158571873
 30
0.0
 10
-31.10444431976251
 20
38.09324592001872
 30
0.0
 10
-30.45785498686897
 20
39.02677656252521
 30
0.0
 10
-30.10226076638968
 20
39.45647036998551
 30
0.0
 10
-29.37981228289819
 20
40.18882410608866
 30
0.0
 10
-29.01338457166138
 20
40.49383461223744
 30
0.0
 10
-28.33105772762299
 20
40.95517303186356
 30
0.0
 10
-28.01405609195079
 20
41.11638251557958
 30
0.0
 10
-27.47817289559031
 20
41.31352144537426
 30
0.0
 10
-27.25909894598834
 20
41.35199234125288
 30
0.0
 10
-26.91811517086808
 20
41.3644904200213
 30
0.0
 10
-26.82182023340822
 20
41.3349556648853
 30
0.0
 10
-26.74358701823441
 20
41.29802793202921
 30
0.0
 10
-26.73340395720539
 20
41.29268850530436
 30
0.0
 10
-26.72345560546693
 20
41.28694482175016
 30
0.0
  0
SPLINE
  5
124E
330
1160
100
AcDbEntity
  8
0
100
AcDbSpline
210
0.0
220
0.0
230
1.0
 70
     8
 71
     3
 72
    30
 73
    26
 74
     0
 42
0.000000001
 43
0.0000000001
 40
2.356194490192344
 40
2.356194490192344
 40
2.356194490192344
 40
2.356194490192344
 40
2.670353755551324
 40
2.670353755551324
 40
2.986263682378289
 40
2.986263682378289
 40
3.244478731431272
 40
3.244478731431272
 40
3.510027841487826
 40
3.510027841487826
 40
3.786241626147743
 40
3.786241626147743
 40
4.068665611876249
 40
4.068665611876249
 40
4.351078978469509
 40
4.351078978469509
 40
4.627055058509507
 40
4.627055058509507
 40
4.891846801117258
 40
4.891846801117258
 40
5.150321741976457
 40
5.150321741976457
 40
5.450035055437536
 40
5.450035055437536
 40
5.497787143782137
 40
5.497787143782137
 40
5.497787143782137
 40
5.497787143782137
 10
-31.97345560546693
 20
7.698780654181778
 30
0.0
 10
-32.03890545241671
 20
7.736568140936679
 30
0.0
 10
-32.1067366266288
 20
7.790230382590568
 30
0.0
 10
-32.2843055762675
 20
8.090122522079941
 30
0.0
 10
-32.38238568746031
 20
8.341956283535107
 30
0.0
 10
-32.47720969804703
 20
8.986443830488397
 30
0.0
 10
-32.48891954531377
 20
9.341586904777567
 30
0.0
 10
-32.42024072867657
 20
10.14930606817261
 30
0.0
 10
-32.33760869474758
 20
10.60384739318598
 30
0.0
 10
-32.06735906816667
 20
11.56818083150655
 30
0.0
 10
-31.87588498233864
 20
12.07932533987668
 30
0.0
 10
-31.39542744778126
 20
13.09466415788696
 30
0.0
 10
-31.10444431976251
 20
13.59834849218694
 30
0.0
 10
-30.45785498686897
 20
14.53187913469342
 30
0.0
 10
-30.10226076638968
 20
14.96157294215372
 30
0.0
 10
-29.37981228289819
 20
15.69392667825687
 30
0.0
 10
-29.01338457166138
 20
15.99893718440567
 30
0.0
 10
-28.33105772762299
 20
16.46027560403178
 30
0.0
 10
-28.01405609195079
 20
16.6214850877478
 30
0.0
 10
-27.47817289559031
 20
16.81862401754248
 30
0.0
 10
-27.25909894598834
 20
16.85709491342111
 30
0.0
 10
-26.91811517086808
 20
16.86959299218953
 30
0.0
 10
-26.82182023340822
 20
16.84005823705353
 30
0.0
 10
-26.74358701823441
 20
16.80313050419744
 30
0.0
 10
-26.73340395720539
 20
16.79779107747258
 30
0.0
 10
-26.72345560546693
 20
16.79204739391838
 30
0.0
  0
SPLINE
  5
124F
330
1160
100
AcDbEntity
  8
0
100
AcDbSpline
210
0.0
220
0.0
230
1.0
 70
     8
 71
     3
 72
    30
 73
    26
 74
     0
 42
0.000000001
 43
0.0000000001
 40
2.356194490192344
 40
2.356194490192344
 40
2.356194490192344
 40
2.356194490192344
 40
2.670353755551324
 40
2.670353755551324
 40
2.986263682378289
 40
2.986263682378289
 40
3.244478731431272
 40
3.244478731431272
 40
3.510027841487826
 40
3.510027841487826
 40
3.786241626147743
 40
3.786241626147743
 40
4.068665611876249
 40
4.068665611876249
 40
4.351078978469509
 40
4.351078978469509
 40
4.627055058509507
 40
4.627055058509507
 40
4.891846801117258
 40
4.891846801117258
 40
5.150321741976457
 40
5.150321741976457
 40
5.450035055437536
 40
5.450035055437536
 40
5.497787143782137
 40
5.497787143782137
 40
5.497787143782137
 40
5.497787143782137
 10
-31.97345560546694
 20
-16.79611677365001
 30
0.0
 10
-32.03890545241672
 20
-16.75832928689511
 30
0.0
 10
-32.10673662662881
 20
-16.70466704524122
 30
0.0
 10
-32.28430557626751
 20
-16.40477490575184
 30
0.0
 10
-32.38238568746031
 20
-16.15294114429668
 30
0.0
 10
-32.47720969804703
 20
-15.50845359734337
 30
0.0
 10
-32.48891954531377
 20
-15.15331052305422
 30
0.0
 10
-32.42024072867657
 20
-14.34559135965917
 30
0.0
 10
-32.33760869474759
 20
-13.89105003464578
 30
0.0
 10
-32.06735906816668
 20
-12.92671659632521
 30
0.0
 10
-31.87588498233865
 20
-12.41557208795511
 30
0.0
 10
-31.39542744778127
 20
-11.40023326994482
 30
0.0
 10
-31.10444431976251
 20
-10.89654893564484
 30
0.0
 10
-30.45785498686898
 20
-9.963018293138361
 30
0.0
 10
-30.10226076638968
 20
-9.533324485678047
 30
0.0
 10
-29.3798122828982
 20
-8.800970749574883
 30
0.0
 10
-29.01338457166139
 20
-8.495960243426114
 30
0.0
 10
-28.331057727623
 20
-8.034621823799987
 30
0.0
 10
-28.0140560919508
 20
-7.87341234008398
 30
0.0
 10
-27.47817289559032
 20
-7.676273410289304
 30
0.0
 10
-27.25909894598835
 20
-7.637802514410676
 30
0.0
 10
-26.91811517086809
 20
-7.625304435642252
 30
0.0
 10
-26.82182023340823
 20
-7.65483919077825
 30
0.0
 10
-26.74358701823442
 20
-7.69176692363434
 30
0.0
 10
-26.7334039572054
 20
-7.697106350359206
 30
0.0
 10
-26.72345560546693
 20
-7.702850033913382
 30
0.0
  0
SPLINE
  5
1250
330
1160
100
AcDbEntity
  8
0
100
AcDbSpline
210
0.0
220
0.0
230
1.0
 70
     8
 71
     3
 72
    30
 73
    26
 74
     0
 42
0.000000001
 43
0.0000000001
 40
2.356194490192344
 40
2.356194490192344
 40
2.356194490192344
 40
2.356194490192344
 40
2.670353755551324
 40
2.670353755551324
 40
2.986263682378289
 40
2.986263682378289
 40
3.244478731431272
 40
3.244478731431272
 40
3.510027841487826
 40
3.510027841487826
 40
3.786241626147743
 40
3.786241626147743
 40
4.068665611876249
 40
4.068665611876249
 40
4.351078978469509
 40
4.351078978469509
 40
4.627055058509507
 40
4.627055058509507
 40
4.891846801117258
 40
4.891846801117258
 40
5.150321741976457
 40
5.150321741976457
 40
5.450035055437536
 40
5.450035055437536
 40
5.497787143782137
 40
5.497787143782137
 40
5.497787143782137
 40
5.497787143782137
 10
-31.97345560546694
 20
-41.29101420148176
 30
0.0
 10
-32.03890545241672
 20
-41.25322671472689
 30
0.0
 10
-32.10673662662881
 20
-41.19956447307301
 30
0.0
 10
-32.28430557626751
 20
-40.89967233358359
 30
0.0
 10
-32.38238568746031
 20
-40.64783857212846
 30
0.0
 10
-32.47720969804703
 20
-40.00335102517516
 30
0.0
 10
-32.48891954531377
 20
-39.64820795088598
 30
0.0
 10
-32.42024072867657
 20
-38.84048878749093
 30
0.0
 10
-32.33760869474759
 20
-38.38594746247757
 30
0.0
 10
-32.06735906816668
 20
-37.42161402415698
 30
0.0
 10
-31.87588498233865
 20
-36.91046951578688
 30
0.0
 10
-31.39542744778127
 20
-35.89513069777661
 30
0.0
 10
-31.10444431976251
 20
-35.39144636347661
 30
0.0
 10
-30.45785498686898
 20
-34.45791572097014
 30
0.0
 10
-30.10226076638968
 20
-34.02822191350984
 30
0.0
 10
-29.3798122828982
 20
-33.29586817740668
 30
0.0
 10
-29.01338457166139
 20
-32.9908576712579
 30
0.0
 10
-28.331057727623
 20
-32.52951925163177
 30
0.0
 10
-28.0140560919508
 20
-32.36830976791575
 30
0.0
 10
-27.47817289559032
 20
-32.17117083812107
 30
0.0
 10
-27.25909894598835
 20
-32.13269994224245
 30
0.0
 10
-26.91811517086809
 20
-32.12020186347404
 30
0.0
 10
-26.82182023340823
 20
-32.14973661861002
 30
0.0
 10
-26.74358701823442
 20
-32.18666435146611
 30
0.0
 10
-26.7334039572054
 20
-32.19200377819098
 30
0.0
 10
-26.72345560546693
 20
-32.19774746174515
 30
0.0
  0
SPLINE
  5
1251
330
1160
100
AcDbEntity
  8
0
100
AcDbSpline
210
0.0
220
0.0
230
1.0
 70
     8
 71
     3
 72
    30
 73
    26
 74
     0
 42
0.000000001
 43
0.0000000001
 40
2.356194490192344
 40
2.356194490192344
 40
2.356194490192344
 40
2.356194490192344
 40
2.670353755551324
 40
2.670353755551324
 40
2.986263682378289
 40
2.986263682378289
 40
3.244478731431272
 40
3.244478731431272
 40
3.510027841487826
 40
3.510027841487826
 40
3.786241626147743
 40
3.786241626147743
 40
4.068665611876249
 40
4.068665611876249
 40
4.351078978469509
 40
4.351078978469509
 40
4.627055058509507
 40
4.627055058509507
 40
4.891846801117258
 40
4.891846801117258
 40
5.150321741976457
 40
5.150321741976457
 40
5.450035055437536
 40
5.450035055437536
 40
5.497787143782137
 40
5.497787143782137
 40
5.497787143782137
 40
5.497787143782137
 10
-31.97345560546694
 20
-65.78591162931354
 30
0.0
 10
-32.03890545241672
 20
-65.74812414255868
 30
0.0
 10
-32.10673662662881
 20
-65.69446190090475
 30
0.0
 10
-32.28430557626751
 20
-65.39456976141538
 30
0.0
 10
-32.38238568746031
 20
-65.14273599996022
 30
0.0
 10
-32.47720969804703
 20
-64.49824845300695
 30
0.0
 10
-32.48891954531377
 20
-64.14310537871779
 30
0.0
 10
-32.42024072867657
 20
-63.33538621532271
 30
0.0
 10
-32.33760869474759
 20
-62.88084489030937
 30
0.0
 10
-32.06735906816668
 20
-61.91651145198877
 30
0.0
 10
-31.87588498233865
 20
-61.40536694361864
 30
0.0
 10
-31.39542744778127
 20
-60.39002812560837
 30
0.0
 10
-31.10444431976251
 20
-59.88634379130838
 30
0.0
 10
-30.45785498686898
 20
-58.95281314880188
 30
0.0
 10
-30.10226076638968
 20
-58.52311934134158
 30
0.0
 10
-29.3798122828982
 20
-57.79076560523846
 30
0.0
 10
-29.01338457166139
 20
-57.48575509908966
 30
0.0
 10
-28.331057727623
 20
-57.02441667946354
 30
0.0
 10
-28.0140560919508
 20
-56.86320719574753
 30
0.0
 10
-27.47817289559032
 20
-56.66606826595286
 30
0.0
 10
-27.25909894598835
 20
-56.62759737007421
 30
0.0
 10
-26.91811517086809
 20
-56.6150992913058
 30
0.0
 10
-26.82182023340823
 20
-56.64463404644179
 30
0.0
 10
-26.74358701823442
 20
-56.68156177929789
 30
0.0
 10
-26.7334039572054
 20
-56.68690120602277
 30
0.0
 10
-26.72345560546693
 20
-56.69264488957695
 30
0.0
  0
SPLINE
  5
1252
330
1160
100
AcDbEntity
  8
0
100
AcDbSpline
210
0.0
220
0.0
230
1.0
 70
     8
 71
     3
 72
    30
 73
    26
 74
     0
 42
0.000000001
 43
0.0000000001
 40
2.356194490192344
 40
2.356194490192344
 40
2.356194490192344
 40
2.356194490192344
 40
2.670353755551324
 40
2.670353755551324
 40
2.986263682378289
 40
2.986263682378289
 40
3.244478731431272
 40
3.244478731431272
 40
3.510027841487826
 40
3.510027841487826
 40
3.786241626147743
 40
3.786241626147743
 40
4.068665611876249
 40
4.068665611876249
 40
4.351078978469509
 40
4.351078978469509
 40
4.627055058509507
 40
4.627055058509507
 40
4.891846801117258
 40
4.891846801117258
 40
5.150321741976457
 40
5.150321741976457
 40
5.450035055437536
 40
5.450035055437536
 40
5.497787143782137
 40
5.497787143782137
 40
5.497787143782137
 40
5.497787143782137
 10
-31.97345560546694
 20
-90.28080905714533
 30
0.0
 10
-32.03890545241672
 20
-90.24302157039043
 30
0.0
 10
-32.10673662662881
 20
-90.18935932873651
 30
0.0
 10
-32.28430557626751
 20
-89.88946718924717
 30
0.0
 10
-32.38238568746031
 20
-89.63763342779197
 30
0.0
 10
-32.47720969804703
 20
-88.99314588083869
 30
0.0
 10
-32.48891954531377
 20
-88.63800280654958
 30
0.0
 10
-32.42024072867657
 20
-87.8302836431545
 30
0.0
 10
-32.33760869474759
 20
-87.37574231814113
 30
0.0
 10
-32.06735906816668
 20
-86.41140887982055
 30
0.0
 10
-31.87588498233865
 20
-85.90026437145043
 30
0.0
 10
-31.39542744778127
 20
-84.88492555344015
 30
0.0
 10
-31.10444431976251
 20
-84.38124121914016
 30
0.0
 10
-30.45785498686898
 20
-83.44771057663367
 30
0.0
 10
-30.10226076638968
 20
-83.01801676917337
 30
0.0
 10
-29.3798122828982
 20
-82.28566303307021
 30
0.0
 10
-29.01338457166139
 20
-81.98065252692144
 30
0.0
 10
-28.331057727623
 20
-81.51931410729533
 30
0.0
 10
-28.0140560919508
 20
-81.35810462357929
 30
0.0
 10
-27.47817289559032
 20
-81.16096569378465
 30
0.0
 10
-27.25909894598835
 20
-81.122494797906
 30
0.0
 10
-26.91811517086809
 20
-81.10999671913758
 30
0.0
 10
-26.82182023340823
 20
-81.13953147427357
 30
0.0
 10
-26.74358701823442
 20
-81.17645920712968
 30
0.0
 10
-26.7334039572054
 20
-81.18179863385451
 30
0.0
 10
-26.72345560546693
 20
-81.1875423174087
 30
0.0
  0
ELLIPSE
  5
1253
330
1160
100
AcDbEntity
  8
0
100
AcDbEllipse
 10
-31.46977594902657
 20
37.96505632327346
 30
0.0
 11
2.624999999999729
 21
4.546633369868458
 31
0.0
210
0.0
220
0.0
230
1.0
 40
0.5773502691896258
 41
3.661258026968354
 42
5.76351993380026
  0
ELLIPSE
  5
1254
330
1160
100
AcDbEntity
  8
0
100
AcDbEllipse
 10
-31.46977594902657
 20
13.47015889544169
 30
0.0
 11
2.624999999999729
 21
4.546633369868458
 31
0.0
210
0.0
220
0.0
230
1.0
 40
0.5773502691896258
 41
3.661258026968354
 42
5.763519933800256
  0
ELLIPSE
  5
1255
330
1160
100
AcDbEntity
  8
0
100
AcDbEllipse
 10
-31.46977594902658
 20
-11.0247385323901
 30
0.0
 11
2.624999999999729
 21
4.546633369868458
 31
0.0
210
0.0
220
0.0
230
1.0
 40
0.5773502691896258
 41
3.661258026968354
 42
5.763519933800256
  0
ELLIPSE
  5
1256
330
1160
100
AcDbEntity
  8
0
100
AcDbEllipse
 10
-31.46977594902658
 20
-35.51963596022187
 30
0.0
 11
2.624999999999729
 21
4.546633369868458
 31
0.0
210
0.0
220
0.0
230
1.0
 40
0.5773502691896258
 41
3.661258026968354
 42
5.763519933800257
  0
ELLIPSE
  5
1257
330
1160
100
AcDbEntity
  8
0
100
AcDbEllipse
 10
-31.46977594902658
 20
-60.01453338805363
 30
0.0
 11
2.624999999999729
 21
4.546633369868458
 31
0.0
210
0.0
220
0.0
230
0.9999999999999998
 40
0.5773502691896259
 41
3.661258026968358
 42
5.763519933800256
  0
ELLIPSE
  5
1258
330
1160
100
AcDbEntity
  8
0
100
AcDbEllipse
 10
-31.46977594902658
 20
-84.50943081588542
 30
0.0
 11
2.624999999999729
 21
4.546633369868458
 31
0.0
210
0.0
220
0.0
230
0.9999999999999998
 40
0.5773502691896259
 41
3.661258026968361
 42
5.763519933800258
  0
ENDBLK
  5
1162
330
1160
100
AcDbEntity
  8
0
100
AcDbBlockEnd
  0
ENDSEC
  0
SECTION
  2
ENTITIES
  0
INSERT
  5
1259
330
1F
100
AcDbEntity
  8
0
100
AcDbBlockReference
  2
CBH220-Front
 10
0.0
 20
0.0
 30
0.0
  0
INSERT
  5
125A
330
1F
100
AcDbEntity
  8
0
100
AcDbBlockReference
  2
CBH220-Left
 10
96.00637218548596
 20
0.0
 30
0.0
  0
INSERT
  5
125B
330
1F
100
AcDbEntity
  8
0
100
AcDbBlockReference
  2
CBH220-Right
 10
-96.00637218548467
 20
0.0
 30
0.0
  0
INSERT
  5
125C
330
1F
100
AcDbEntity
  8
0
100
AcDbBlockReference
  2
CBH220-Top
 10
0.0
 20
-286.0
 30
0.0
  0
INSERT
  5
125D
330
1F
100
AcDbEntity
  8
0
100
AcDbBlockReference
  2
CBH220-Bottom
 10
0.0
 20
66.0
 30
0.0
  0
INSERT
  5
125E
330
1F
100
AcDbEntity
  8
0
100
AcDbBlockReference
  2
CBH220-ISO
 10
137.0157174950463
 20
-398.2952585003975
 30
0.0
  0
MTEXT
  5
125F
330
1F
100
AcDbEntity
  8
0
100
AcDbMText
 10
0.0
 20
-465.5
 30
0.0
 40
12.00000000000018
 41
0.0
 71
     5
 72
     5
  1
CBH220/2.5S
 73
     1
 44
1.0
1001
ACAD
1000
MTEXTBEGIN
1070
    73
1070
     1
1070
    44
1040
1.0
1070
    74
1070
     0
1000
MTEXTEND
  0
ENDSEC
  0
SECTION
  2
OBJECTS
  0
DICTIONARY
  5
C
330
0
100
AcDbDictionary
281
     1
  3
ACAD_CIP_PREVIOUS_PRODUCT_INFO
350
216
  3
ACAD_COLOR
350
6B
  3
ACAD_DETAILVIEWSTYLE
350
21B
  3
ACAD_GROUP
350
D
  3
ACAD_LAYOUT
350
1A
  3
ACAD_MATERIAL
350
6A
  3
ACAD_MLEADERSTYLE
350
12D
  3
ACAD_MLINESTYLE
350
17
  3
ACAD_PLOTSETTINGS
350
19
  3
ACAD_PLOTSTYLENAME
350
E
  3
ACAD_SCALELIST
350
10C
  3
ACAD_SECTIONVIEWSTYLE
350
219
  3
ACAD_TABLESTYLE
350
7E
  3
ACAD_VISUALSTYLE
350
EF
  3
ACDB_RECOMPOSE_DATA
350
1360
  3
AcDbVariableDictionary
350
5E
  3
DWGPROPS
350
1361
  0
DICTIONARY
  5
12B0
330
8
100
AcDbDictionary
280
     1
281
     1
  0
DICTIONARY
  5
1FF
330
2
100
AcDbDictionary
280
     1
281
     1
  3
ACAD_LAYERSTATES
360
200
  0
DICTIONARY
  5
13C
330
10
100
AcDbDictionary
280
     1
281
     1
  0
DICTIONARY
  5
1CE
330
1F
100
AcDbDictionary
280
     1
281
     1
  3
ACAD_LAYOUTSELFREF
360
12B8
  0
DICTIONARY
  5
1263
330
D2
100
AcDbDictionary
280
     1
281
     1
  3
ACAD_LAYOUTSELFREF
360
12C1
  0
DICTIONARY
  5
1265
330
D6
100
AcDbDictionary
280
     1
281
     1
  3
ACAD_LAYOUTSELFREF
360
12C4
  0
XRECORD
  5
216
102
{ACAD_REACTORS
330
C
102
}
330
C
100
AcDbXrecord
280
     1
300
ACD
300
2021
300

  0
DICTIONARY
  5
6B
102
{ACAD_REACTORS
330
C
102
}
330
C
100
AcDbDictionary
281
     1
  0
DICTIONARY
  5
21B
102
{ACAD_REACTORS
330
C
102
}
330
C
100
AcDbDictionary
281
     1
  3
Metric50
350
21C
  0
DICTIONARY
  5
D
102
{ACAD_REACTORS
330
C
102
}
330
C
100
AcDbDictionary
281
     1
  0
DICTIONARY
  5
1A
102
{ACAD_REACTORS
330
C
102
}
330
C
100
AcDbDictionary
281
     1
  3
Layout1
350
D3
  3
Layout2
350
D7
  3
Model
350
22
  0
DICTIONARY
  5
6A
102
{ACAD_REACTORS
330
C
102
}
330
C
100
AcDbDictionary
281
     1
  3
ByBlock
350
ED
  3
ByLayer
350
EC
  3
Global
350
EE
  0
DICTIONARY
  5
12D
102
{ACAD_REACTORS
330
C
102
}
330
C
100
AcDbDictionary
281
     1
  3
Standard
350
12E
  0
DICTIONARY
  5
17
102
{ACAD_REACTORS
330
C
102
}
330
C
100
AcDbDictionary
281
     1
  3
Standard
350
18
  0
DICTIONARY
  5
19
102
{ACAD_REACTORS
330
C
102
}
330
C
100
AcDbDictionary
281
     1
  0
ACDBDICTIONARYWDFLT
  5
E
102
{ACAD_REACTORS
330
C
102
}
330
C
100
AcDbDictionary
281
     1
  3
Normal
350
F
100
AcDbDictionaryWithDefault
340
F
  0
DICTIONARY
  5
10C
102
{ACAD_REACTORS
330
C
102
}
330
C
100
AcDbDictionary
281
     1
  3
A0
350
10D
  3
A1
350
1BE
  3
A2
350
1BF
  3
A3
350
1C0
  3
A4
350
1C1
  3
A5
350
1C2
  3
A6
350
1C3
  3
A7
350
1C4
  3
A8
350
1C5
  3
A9
350
1C6
  3
B0
350
1C7
  3
B1
350
1C8
  3
B2
350
1C9
  3
B3
350
1CA
  3
B4
350
1CB
  3
B5
350
1CC
  3
B6
350
1CD
  0
DICTIONARY
  5
219
102
{ACAD_REACTORS
330
C
102
}
330
C
100
AcDbDictionary
281
     1
  3
Metric50
350
21A
  0
DICTIONARY
  5
7E
102
{ACAD_REACTORS
330
C
102
}
330
C
100
AcDbDictionary
281
     1
  3
Standard
350
7F
  0
DICTIONARY
  5
EF
102
{ACAD_REACTORS
330
C
102
}
330
C
100
AcDbDictionary
281
     1
  3
2dWireframe
350
F5
  3
Basic
350
F4
  3
Brighten
350
FB
  3
ColorChange
350
FF
  3
Conceptual
350
F8
  3
Dim
350
FA
  3
EdgeColorOff
350
1E6
  3
Facepattern
350
FE
  3
Flat
350
F0
  3
FlatWithEdges
350
F1
  3
Gouraud
350
F2
  3
GouraudWithEdges
350
F3
  3
Hidden
350
F7
  3
JitterOff
350
1E4
  3
Linepattern
350
FD
  3
OverhangOff
350
1E5
  3
Realistic
350
F9
  3
Shaded
350
1F3
  3
Shaded with edges
350
1F2
  3
Shades of Gray
350
1EF
  3
Sketchy
350
1F0
  3
Thicken
350
FC
  3
Wireframe
350
F6
  3
X-Ray
350
1F1
  0
XRECORD
  5
1360
102
{ACAD_REACTORS
330
C
102
}
330
C
100
AcDbXrecord
280
     1
 90
        1
330
7F
  0
DICTIONARY
  5
5E
102
{ACAD_REACTORS
330
C
102
}
330
C
100
AcDbDictionary
281
     1
  3
CANNOSCALE
350
146
  3
CENTEREXE
350
259
  3
CENTERLTYPEFILE
350
25A
  3
CMLEADERSTYLE
350
145
  3
CTABLESTYLE
350
84
  3
CVIEWDETAILSTYLE
350
227
  3
CVIEWSECTIONSTYLE
350
228
  3
DIMASSOC
350
5F
  3
HIDETEXT
350
63
  3
INDEXCTL
350
130D
  3
LAYEREVAL
350
1AE
  3
LAYERNOTIFY
350
1AF
  3
LIGHTINGUNITS
350
130B
  3
MSLTSCALE
350
130A
  3
PSOLHEIGHT
350
135D
  3
PSOLWIDTH
350
135C
  3
SORTENTS
350
130C
  3
XCLIPFRAME
350
135E
  0
XRECORD
  5
1361
102
{ACAD_REACTORS
330
C
102
}
330
C
100
AcDbXrecord
280
     1
  1
DWGPROPS COOKIE
  2

  3

  4

  6

  7

  8
tronnguyen
  9

300
=
301
=
302
=
303
=
304
=
305
=
306
=
307
=
308
=
309
=
 40
0.0033680555555556
 41
2460286.6225
 42
2460286.631793981
  1

 90
        0
  0
DICTIONARY
  5
200
102
{ACAD_REACTORS
330
1FF
102
}
330
1FF
100
AcDbDictionary
281
     1
  0
XRECORD
  5
12B8
102
{ACAD_REACTORS
330
1CE
102
}
330
1CE
100
AcDbXrecord
280
     1
340
1F
  0
XRECORD
  5
12C1
102
{ACAD_REACTORS
330
1263
102
}
330
1263
100
AcDbXrecord
280
     1
340
D2
  0
XRECORD
  5
12C4
102
{ACAD_REACTORS
330
1265
102
}
330
1265
100
AcDbXrecord
280
     1
340
D6
  0
ACDBDETAILVIEWSTYLE
  5
21C
102
{ACAD_XDICTIONARY
360
13A0
102
}
102
{ACAD_REACTORS
330
21B
102
}
330
21B
100
AcDbModelDocViewStyle
 70
     0
  3
Metric50
290
     0
100
AcDbDetailViewStyle
 70
     0
 71
     0
 90
        3
 71
     1
340
11
 40
5.0
340
0
 40
5.0
300

 40
0.0
280
     1
 71
     2
340
16
 90
       25
 71
     3
340
11
 40
5.0
 90
        0
 40
15.0
 90
        1
300
%<\AcVar ViewDetailId>% (%<\AcVar ViewScale \f "%sn">%)
 71
     4
340
16
 90
       25
340
16
 90
       25
280
     0
  0
LAYOUT
  5
D3
102
{ACAD_XDICTIONARY
360
1365
102
}
102
{ACAD_REACTORS
330
1A
102
}
330
1A
100
AcDbPlotSettings
  1

  2
C:\Documents and Settings\basas\Application Data\Autodesk\AutoCAD 2005\R16.1\enu\plotters\Default Windows System Printer.pc3
  4

  6

 40
0.0
 41
0.0
 42
0.0
 43
0.0
 44
0.0
 45
0.0
 46
0.0
 47
0.0
 48
0.0
 49
0.0
140
0.0
141
0.0
142
1.0
143
1.0
 70
   688
 72
     0
 73
     0
 74
     5
  7

 75
    16
147
1.0
148
0.0
149
0.0
100
AcDbLayout
  1
Layout1
 70
     1
 71
     1
 10
0.0
 20
0.0
 11
12.0
 21
9.0
 12
0.0
 22
0.0
 32
0.0
 14
0.0
 24
0.0
 34
0.0
 15
0.0
 25
0.0
 35
0.0
146
0.0
 13
0.0
 23
0.0
 33
0.0
 16
1.0
 26
0.0
 36
0.0
 17
0.0
 27
1.0
 37
0.0
 76
     0
330
D2
  0
LAYOUT
  5
D7
102
{ACAD_XDICTIONARY
360
1367
102
}
102
{ACAD_REACTORS
330
1A
102
}
330
1A
100
AcDbPlotSettings
  1

  2
C:\Documents and Settings\basas\Application Data\Autodesk\AutoCAD 2005\R16.1\enu\plotters\Default Windows System Printer.pc3
  4

  6

 40
0.0
 41
0.0
 42
0.0
 43
0.0
 44
0.0
 45
0.0
 46
0.0
 47
0.0
 48
0.0
 49
0.0
140
0.0
141
0.0
142
1.0
143
1.0
 70
   688
 72
     0
 73
     0
 74
     5
  7

 75
    16
147
1.0
148
0.0
149
0.0
100
AcDbLayout
  1
Layout2
 70
     1
 71
     2
 10
0.0
 20
0.0
 11
12.0
 21
9.0
 12
0.0
 22
0.0
 32
0.0
 14
0.0
 24
0.0
 34
0.0
 15
0.0
 25
0.0
 35
0.0
146
0.0
 13
0.0
 23
0.0
 33
0.0
 16
1.0
 26
0.0
 36
0.0
 17
0.0
 27
1.0
 37
0.0
 76
     0
330
D6
  0
LAYOUT
  5
22
102
{ACAD_XDICTIONARY
360
1362
102
}
102
{ACAD_REACTORS
330
1A
102
}
330
1A
100
AcDbPlotSettings
  1

  2
none_device
  4
ISO_A4_(210.00_x_297.00_MM)
  6

 40
7.5
 41
20.0
 42
7.5
 43
20.0
 44
210.0
 45
297.0
 46
11.54999923706054
 47
-13.65000009536743
 48
0.0
 49
0.0
140
0.0
141
0.0
142
1.0
143
8.704084754739808
 70
 11952
 72
     1
 73
     0
 74
     0
  7

 75
     0
147
0.1148885871608098
148
0.0
149
0.0
100
AcDbLayout
  1
Model
 70
     1
 71
     0
 10
0.0
 20
0.0
 11
12.0
 21
9.0
 12
0.0
 22
0.0
 32
0.0
 14
0.0
 24
0.0
 34
0.0
 15
0.0
 25
0.0
 35
0.0
146
0.0
 13
0.0
 23
0.0
 33
0.0
 16
1.0
 26
0.0
 36
0.0
 17
0.0
 27
1.0
 37
0.0
 76
     0
330
1F
331
EA
1001
ACAD_PSEXT
1000
None
1000
None
1000
Not applicable
1000
The layout will not be plotted unless a new plotter configuration name is selected.
1070
     0
  0
MATERIAL
  5
ED
102
{ACAD_XDICTIONARY
360
1F9
102
}
102
{ACAD_REACTORS
330
6A
102
}
330
6A
100
AcDbMaterial
  1
ByBlock
  0
MATERIAL
  5
EC
102
{ACAD_XDICTIONARY
360
1F7
102
}
102
{ACAD_REACTORS
330
6A
102
}
330
6A
100
AcDbMaterial
  1
ByLayer
  0
MATERIAL
  5
EE
102
{ACAD_XDICTIONARY
360
173
102
}
102
{ACAD_REACTORS
330
6A
102
}
330
6A
100
AcDbMaterial
  1
Global
 43
0.0007999999797903
 43
0.0
 43
0.0
 43
0.0
 43
0.0
 43
0.0007999999797903
 43
0.0
 43
0.0
 43
0.0
 43
0.0
 43
1.0
 43
0.0
 43
0.0
 43
0.0
 43
0.0
 43
1.0
 49
0.0007999999797903
 49
0.0
 49
0.0
 49
0.0
 49
0.0
 49
0.0007999999797903
 49
0.0
 49
0.0
 49
0.0
 49
0.0
 49
1.0
 49
0.0
 49
0.0
 49
0.0
 49
0.0
 49
1.0
142
0.0007999999797903
142
0.0
142
0.0
142
0.0
142
0.0
142
0.0007999999797903
142
0.0
142
0.0
142
0.0
142
0.0
142
1.0
142
0.0
142
0.0
142
0.0
142
0.0
142
1.0
144
0.0007999999797903
144
0.0
144
0.0
144
0.0
144
0.0
144
0.0007999999797903
144
0.0
144
0.0
144
0.0
144
0.0
144
1.0
144
0.0
144
0.0
144
0.0
144
0.0
144
1.0
1001
ACAD
1070
    -1
1070
     3
1070
     0
1000

1071
        0
1070
     0
  0
MLEADERSTYLE
  5
12E
102
{ACAD_XDICTIONARY
360
138C
102
}
102
{ACAD_REACTORS
330
12D
102
}
330
12D
100
AcDbMLeaderStyle
170
     2
171
     1
172
     0
 90
        2
 40
0.0
 41
0.0
173
     1
 91
-1056964608
340
14
 92
       -2
290
     1
 42
2.0
291
     1
 43
8.0
  3
Standard
 44
4.0
300

342
11
174
     1
178
     1
175
     1
176
     0
 93
-1056964608
 45
4.0
292
     0
297
     0
 46
4.0
 94
-1056964608
 47
1.0
 49
1.0
140
1.0
293
     1
141
0.0
294
     1
177
     0
142
1.0
295
     0
296
     0
143
3.75
1001
ACAD_MLEADERVER
1070
     2
  0
MLINESTYLE
  5
18
102
{ACAD_REACTORS
330
17
102
}
330
17
100
AcDbMlineStyle
  2
STANDARD
 70
     0
  3

 62
   256
 51
90.0
 52
90.0
 71
     2
 49
0.5
 62
   256
  6
BYLAYER
 49
-0.5
 62
   256
  6
BYLAYER
  0
ACDBPLACEHOLDER
  5
F
102
{ACAD_REACTORS
330
E
102
}
330
E
  0
SCALE
  5
10D
102
{ACAD_REACTORS
330
10C
102
}
330
10C
100
AcDbScale
 70
     0
300
1:1
140
1.0
141
1.0
290
     1
  0
SCALE
  5
1BE
102
{ACAD_REACTORS
330
10C
102
}
330
10C
100
AcDbScale
 70
     0
300
1:2
140
1.0
141
2.0
290
     0
  0
SCALE
  5
1BF
102
{ACAD_REACTORS
330
10C
102
}
330
10C
100
AcDbScale
 70
     0
300
1:4
140
1.0
141
4.0
290
     0
  0
SCALE
  5
1C0
102
{ACAD_REACTORS
330
10C
102
}
330
10C
100
AcDbScale
 70
     0
300
1:5
140
1.0
141
5.0
290
     0
  0
SCALE
  5
1C1
102
{ACAD_REACTORS
330
10C
102
}
330
10C
100
AcDbScale
 70
     0
300
1:8
140
1.0
141
8.0
290
     0
  0
SCALE
  5
1C2
102
{ACAD_REACTORS
330
10C
102
}
330
10C
100
AcDbScale
 70
     0
300
1:10
140
1.0
141
10.0
290
     0
  0
SCALE
  5
1C3
102
{ACAD_REACTORS
330
10C
102
}
330
10C
100
AcDbScale
 70
     0
300
1:16
140
1.0
141
16.0
290
     0
  0
SCALE
  5
1C4
102
{ACAD_REACTORS
330
10C
102
}
330
10C
100
AcDbScale
 70
     0
300
1:20
140
1.0
141
20.0
290
     0
  0
SCALE
  5
1C5
102
{ACAD_REACTORS
330
10C
102
}
330
10C
100
AcDbScale
 70
     0
300
1:30
140
1.0
141
30.0
290
     0
  0
SCALE
  5
1C6
102
{ACAD_REACTORS
330
10C
102
}
330
10C
100
AcDbScale
 70
     0
300
1:40
140
1.0
141
40.0
290
     0
  0
SCALE
  5
1C7
102
{ACAD_REACTORS
330
10C
102
}
330
10C
100
AcDbScale
 70
     0
300
1:50
140
1.0
141
50.0
290
     0
  0
SCALE
  5
1C8
102
{ACAD_REACTORS
330
10C
102
}
330
10C
100
AcDbScale
 70
     0
300
1:100
140
1.0
141
100.0
290
     0
  0
SCALE
  5
1C9
102
{ACAD_REACTORS
330
10C
102
}
330
10C
100
AcDbScale
 70
     0
300
2:1
140
2.0
141
1.0
290
     0
  0
SCALE
  5
1CA
102
{ACAD_REACTORS
330
10C
102
}
330
10C
100
AcDbScale
 70
     0
300
4:1
140
4.0
141
1.0
290
     0
  0
SCALE
  5
1CB
102
{ACAD_REACTORS
330
10C
102
}
330
10C
100
AcDbScale
 70
     0
300
8:1
140
8.0
141
1.0
290
     0
  0
SCALE
  5
1CC
102
{ACAD_REACTORS
330
10C
102
}
330
10C
100
AcDbScale
 70
     0
300
10:1
140
10.0
141
1.0
290
     0
  0
SCALE
  5
1CD
102
{ACAD_REACTORS
330
10C
102
}
330
10C
100
AcDbScale
 70
     0
300
100:1
140
100.0
141
1.0
290
     0
  0
ACDBSECTIONVIEWSTYLE
  5
21A
102
{ACAD_XDICTIONARY
360
139E
102
}
102
{ACAD_REACTORS
330
219
102
}
330
219
100
AcDbModelDocViewStyle
 70
     0
  3
Metric50
290
     0
100
AcDbSectionViewStyle
 70
     0
 71
     0
 90
      102
 71
     1
340
11
 40
5.0
340
0
340
0
 40
5.0
300
I, O, Q, S, X, Z
 40
10.0
 90
        0
 40
2.5
 90
        0
 71
     2
340
16
 90
       25
340
16
 90
       50
 40
5.0
 40
2.5
 40
5.0
 71
     3
340
11
 40
5.0
 90
        0
 40
15.0
 90
        1
300
%<\AcVar ViewSectionStartId>%-%<\AcVar ViewSectionEndId>% (%<\AcVar ViewScale \f "%sn">%)
 71
     4
300
ANSI31
 40
1.0
 90
        0
290
     0
290
     0
 90
        6
 40
0.0
 40
1.570796326794896
 40
0.2617993877991494
 40
1.308996938995747
 40
-0.2617993877991494
 40
1.832595714594046
  0
TABLESTYLE
  5
7F
102
{ACAD_XDICTIONARY
360
162
102
}
102
{ACAD_REACTORS
330
7E
102
}
330
7E
100
AcDbTableStyle
  3
Standard
 70
     0
 71
     0
 40
1.5
 41
1.5
280
     0
281
     0
  7
Standard
140
4.5
170
     2
 62
     0
 63
     7
283
     0
274
    -2
284
     1
 64
     0
275
    -2
285
     1
 65
     0
276
    -2
286
     1
 66
     0
277
    -2
287
     1
 67
     0
278
    -2
288
     1
 68
     0
279
    -2
289
     1
 69
     0
  7
Standard
140
6.0
170
     5
 62
     0
 63
     7
283
     0
274
    -2
284
     1
 64
     0
275
    -2
285
     1
 65
     0
276
    -2
286
     1
 66
     0
277
    -2
287
     1
 67
     0
278
    -2
288
     1
 68
     0
279
    -2
289
     1
 69
     0
  7
Standard
140
4.5
170
     5
 62
     0
 63
     7
283
     0
274
    -2
284
     1
 64
     0
275
    -2
285
     1
 65
     0
276
    -2
286
     1
 66
     0
277
    -2
287
     1
 67
     0
278
    -2
288
     1
 68
     0
279
    -2
289
     1
 69
     0
  0
VISUALSTYLE
  5
F5
102
{ACAD_XDICTIONARY
360
1376
102
}
102
{ACAD_REACTORS
330
EF
102
}
330
EF
100
AcDbVisualStyle
  2
2dWireframe
 70
     4
 71
     0
 72
     2
 73
     1
 90
        0
 40
-0.6
 41
-30.0
 62
     5
 63
     7
 74
     1
 91
        4
 64
     7
 65
   257
 75
     1
175
     1
 42
1.0
 92
        0
 66
   257
 43
1.0
 76
     1
 77
     6
 78
     2
 67
     7
 79
     5
170
     0
171
     0
290
     0
174
     0
 93
        1
 44
0.0
173
     0
291
     0
 45
0.0
1001
ACAD
1000
AcDbSavedByObjectVersion
1070
     0
  0
VISUALSTYLE
  5
F4
102
{ACAD_XDICTIONARY
360
1374
102
}
102
{ACAD_REACTORS
330
EF
102
}
330
EF
100
AcDbVisualStyle
  2
Basic
 70
     7
 71
     1
 72
     0
 73
     1
 90
        0
 40
-0.6
 41
-30.0
 62
     5
 63
     7
 74
     0
 91
        4
 64
     7
 65
   257
 75
     1
175
     1
 42
1.0
 92
        8
 66
     7
 43
1.0
 76
     1
 77
     6
 78
     2
 67
     7
 79
     5
170
     0
171
     0
290
     0
174
     0
 93
        1
 44
0.0
173
     0
291
     1
 45
0.0
1001
ACAD
1000
AcDbSavedByObjectVersion
1070
     0
  0
VISUALSTYLE
  5
FB
102
{ACAD_XDICTIONARY
360
1382
102
}
102
{ACAD_REACTORS
330
EF
102
}
330
EF
100
AcDbVisualStyle
  2
Brighten
 70
    12
 71
     2
 72
     2
 73
     1
 90
        0
 40
-0.6
 41
-30.0
 62
     5
 63
     7
 74
     1
 91
        4
 64
     7
 65
   257
 75
     1
175
     1
 42
1.0
 92
        8
 66
     7
 43
1.0
 76
     1
 77
     6
 78
     2
 67
     7
 79
     5
170
     0
171
     0
290
     0
174
     0
 93
        1
 44
50.0
173
     0
291
     1
 45
0.0
1001
ACAD
1000
AcDbSavedByObjectVersion
1070
     0
  0
VISUALSTYLE
  5
FF
102
{ACAD_XDICTIONARY
360
138A
102
}
102
{ACAD_REACTORS
330
EF
102
}
330
EF
100
AcDbVisualStyle
  2
ColorChange
 70
    16
 71
     2
 72
     2
 73
     3
 90
        0
 40
-0.6
 41
-30.0
 62
     5
 63
     8
 74
     1
 91
        4
 64
     7
 65
   257
 75
     1
175
     1
 42
1.0
 92
        8
 66
     8
 43
1.0
 76
     1
 77
     6
 78
     2
 67
     7
 79
     5
170
     0
171
     0
290
     0
174
     0
 93
        1
 44
0.0
173
     0
291
     1
 45
0.0
1001
ACAD
1000
AcDbSavedByObjectVersion
1070
     0
  0
VISUALSTYLE
  5
F8
102
{ACAD_XDICTIONARY
360
137C
102
}
102
{ACAD_REACTORS
330
EF
102
}
330
EF
100
AcDbVisualStyle
  2
Conceptual
 70
     9
 71
     3
 72
     2
 73
     1
 90
        0
 40
-0.6
 41
-30.0
 62
     5
 63
     7
 74
     2
 91
        2
 64
     7
 65
   257
 75
     1
175
     1
 42
40.0
 92
        8
 66
     7
 43
1.0
 76
     1
 77
     6
 78
     2
 67
     7
 79
     3
170
     0
171
     0
290
     0
174
     0
 93
        1
 44
0.0
173
     0
291
     0
 45
0.0
1001
ACAD
1000
AcDbSavedByObjectVersion
1070
     0
  0
VISUALSTYLE
  5
FA
102
{ACAD_XDICTIONARY
360
1380
102
}
102
{ACAD_REACTORS
330
EF
102
}
330
EF
100
AcDbVisualStyle
  2
Dim
 70
    11
 71
     2
 72
     2
 73
     1
 90
        0
 40
-0.6
 41
-30.0
 62
     5
 63
     7
 74
     1
 91
        4
 64
     7
 65
   257
 75
     1
175
     1
 42
1.0
 92
        8
 66
     7
 43
1.0
 76
     1
 77
     6
 78
     2
 67
     7
 79
     5
170
     0
171
     0
290
     0
174
     0
 93
        1
 44
-50.0
173
     0
291
     1
 45
0.0
1001
ACAD
1000
AcDbSavedByObjectVersion
1070
     0
  0
VISUALSTYLE
  5
1E6
102
{ACAD_XDICTIONARY
360
1392
102
}
102
{ACAD_REACTORS
330
EF
102
}
330
EF
100
AcDbVisualStyle
  2
EdgeColorOff
 70
    22
 71
     2
 72
     2
 73
     0
 90
        0
 40
-0.6
 41
-30.0
 62
     5
 63
     7
 74
     1
 91
        4
 64
     7
 65
   257
 75
     1
175
     1
 42
1.0
 92
        8
 66
     7
 43
1.0
 76
     1
 77
     6
 78
     2
 67
     7
 79
     5
170
     0
171
     0
290
     0
174
     0
 93
        1
 44
0.0
173
     0
291
     1
 45
0.0
1001
ACAD
1000
AcDbSavedByObjectVersion
1070
     0
  0
VISUALSTYLE
  5
FE
102
{ACAD_XDICTIONARY
360
1388
102
}
102
{ACAD_REACTORS
330
EF
102
}
330
EF
100
AcDbVisualStyle
  2
Facepattern
 70
    15
 71
     2
 72
     2
 73
     1
 90
        0
 40
-0.6
 41
-30.0
 62
     5
 63
     7
 74
     1
 91
        4
 64
     7
 65
   257
 75
     1
175
     1
 42
1.0
 92
        8
 66
     7
 43
1.0
 76
     1
 77
     6
 78
     2
 67
     7
 79
     5
170
     0
171
     0
290
     0
174
     0
 93
        1
 44
0.0
173
     0
291
     1
 45
0.0
1001
ACAD
1000
AcDbSavedByObjectVersion
1070
     0
  0
VISUALSTYLE
  5
F0
102
{ACAD_XDICTIONARY
360
136C
102
}
102
{ACAD_REACTORS
330
EF
102
}
330
EF
100
AcDbVisualStyle
  2
Flat
 70
     0
 71
     2
 72
     1
 73
     1
 90
        2
 40
-0.6
 41
30.0
 62
     5
 63
     7
 74
     0
 91
        0
 64
     7
 65
   257
 75
     1
175
     1
 42
1.0
 92
        8
 66
     7
 43
1.0
 76
     1
 77
     6
 78
     2
 67
     7
 79
     5
170
     0
171
     0
290
     0
174
     0
 93
       13
 44
0.0
173
     0
291
     1
 45
0.0
1001
ACAD
1000
AcDbSavedByObjectVersion
1070
     0
  0
VISUALSTYLE
  5
F1
102
{ACAD_XDICTIONARY
360
136E
102
}
102
{ACAD_REACTORS
330
EF
102
}
330
EF
100
AcDbVisualStyle
  2
FlatWithEdges
 70
     1
 71
     2
 72
     1
 73
     1
 90
        2
 40
-0.6
 41
30.0
 62
     5
 63
     7
 74
     1
 91
        0
 64
     7
 65
   257
 75
     1
175
     1
 42
1.0
 92
        0
 66
   257
 43
1.0
 76
     1
 77
     6
 78
     2
 67
     7
 79
     5
170
     0
171
     0
290
     0
174
     0
 93
       13
 44
0.0
173
     0
291
     1
 45
0.0
1001
ACAD
1000
AcDbSavedByObjectVersion
1070
     0
  0
VISUALSTYLE
  5
F2
102
{ACAD_XDICTIONARY
360
1370
102
}
102
{ACAD_REACTORS
330
EF
102
}
330
EF
100
AcDbVisualStyle
  2
Gouraud
 70
     2
 71
     2
 72
     2
 73
     1
 90
        2
 40
-0.6
 41
30.0
 62
     5
 63
     7
 74
     0
 91
        0
 64
     7
 65
   257
 75
     1
175
     1
 42
1.0
 92
        0
 66
     7
 43
1.0
 76
     1
 77
     6
 78
     2
 67
     7
 79
     5
170
     0
171
     0
290
     0
174
     0
 93
       13
 44
0.0
173
     0
291
     1
 45
0.0
1001
ACAD
1000
AcDbSavedByObjectVersion
1070
     0
  0
VISUALSTYLE
  5
F3
102
{ACAD_XDICTIONARY
360
1372
102
}
102
{ACAD_REACTORS
330
EF
102
}
330
EF
100
AcDbVisualStyle
  2
GouraudWithEdges
 70
     3
 71
     2
 72
     2
 73
     1
 90
        2
 40
-0.6
 41
30.0
 62
     5
 63
     7
 74
     1
 91
        0
 64
     7
 65
   257
 75
     1
175
     1
 42
1.0
 92
        0
 66
   257
 43
1.0
 76
     1
 77
     6
 78
     2
 67
     7
 79
     5
170
     0
171
     0
290
     0
174
     0
 93
       13
 44
0.0
173
     0
291
     1
 45
0.0
1001
ACAD
1000
AcDbSavedByObjectVersion
1070
     0
  0
VISUALSTYLE
  5
F7
102
{ACAD_XDICTIONARY
360
137A
102
}
102
{ACAD_REACTORS
330
EF
102
}
330
EF
100
AcDbVisualStyle
  2
Hidden
 70
     6
 71
     1
 72
     2
 73
     2
 90
        0
 40
-0.6
 41
-30.0
 62
     5
 63
     7
 74
     2
 91
        2
 64
     7
 65
   257
 75
     2
175
     1
 42
40.0
 92
        0
 66
   257
 43
1.0
 76
     1
 77
     6
 78
     2
 67
     7
 79
     3
170
     0
171
     0
290
     0
174
     0
 93
        1
 44
0.0
173
     0
291
     0
 45
0.0
1001
ACAD
1000
AcDbSavedByObjectVersion
1070
     0
  0
VISUALSTYLE
  5
1E4
102
{ACAD_XDICTIONARY
360
138E
102
}
102
{ACAD_REACTORS
330
EF
102
}
330
EF
100
AcDbVisualStyle
  2
JitterOff
 70
    20
 71
     2
 72
     2
 73
     0
 90
        0
 40
-0.6
 41
-30.0
 62
     5
 63
     7
 74
     1
 91
        4
 64
     7
 65
   257
 75
     1
175
     1
 42
1.0
 92
       10
 66
     7
 43
1.0
 76
     1
 77
     6
 78
     2
 67
     7
 79
     5
170
     0
171
     0
290
     0
174
     0
 93
        1
 44
0.0
173
     0
291
     1
 45
0.0
1001
ACAD
1000
AcDbSavedByObjectVersion
1070
     0
  0
VISUALSTYLE
  5
FD
102
{ACAD_XDICTIONARY
360
1386
102
}
102
{ACAD_REACTORS
330
EF
102
}
330
EF
100
AcDbVisualStyle
  2
Linepattern
 70
    14
 71
     2
 72
     2
 73
     1
 90
        0
 40
-0.6
 41
-30.0
 62
     5
 63
     7
 74
     1
 91
        4
 64
     7
 65
   257
 75
     7
175
     7
 42
1.0
 92
        8
 66
     7
 43
1.0
 76
     1
 77
     6
 78
     2
 67
     7
 79
     5
170
     0
171
     0
290
     0
174
     0
 93
        1
 44
0.0
173
     0
291
     1
 45
0.0
1001
ACAD
1000
AcDbSavedByObjectVersion
1070
     0
  0
VISUALSTYLE
  5
1E5
102
{ACAD_XDICTIONARY
360
1390
102
}
102
{ACAD_REACTORS
330
EF
102
}
330
EF
100
AcDbVisualStyle
  2
OverhangOff
 70
    21
 71
     2
 72
     2
 73
     0
 90
        0
 40
-0.6
 41
-30.0
 62
     5
 63
     7
 74
     1
 91
        4
 64
     7
 65
   257
 75
     1
175
     1
 42
1.0
 92
        9
 66
     7
 43
1.0
 76
     1
 77
     6
 78
     2
 67
     7
 79
     5
170
     0
171
     0
290
     0
174
     0
 93
        1
 44
0.0
173
     0
291
     1
 45
0.0
1001
ACAD
1000
AcDbSavedByObjectVersion
1070
     0
  0
VISUALSTYLE
  5
F9
102
{ACAD_XDICTIONARY
360
137E
102
}
102
{ACAD_REACTORS
330
EF
102
}
330
EF
100
AcDbVisualStyle
  2
Realistic
 70
     8
 71
     2
 72
     2
 73
     0
 90
        2
 40
-0.6
 41
30.0
 62
     5
 63
     7
 74
     0
 91
        0
 64
     7
 65
   257
 75
     1
175
     1
 42
1.0
 92
        8
 66
   257
 43
1.0
 76
     1
 77
     6
 78
     2
 67
     7
 79
     3
170
     0
171
     0
290
     0
174
     0
 93
       13
 44
0.0
173
     0
291
     0
 45
0.0
1001
ACAD
1000
AcDbSavedByObjectVersion
1070
     0
  0
VISUALSTYLE
  5
1F3
102
{ACAD_XDICTIONARY
360
139C
102
}
102
{ACAD_REACTORS
330
EF
102
}
330
EF
100
AcDbVisualStyle
  2
Shaded
 70
    27
 71
     2
 72
     2
 73
     1
 90
        2
 40
-0.6
 41
30.0
 62
     5
 63
     7
 74
     0
 91
        4
 64
     7
 65
   257
 75
     1
175
     1
 42
1.0
 92
        8
 66
   257
 43
1.0
 76
     1
 77
     6
 78
     2
 67
     8
 79
     3
170
     0
171
     0
290
     0
174
     0
 93
        5
 44
0.0
173
     0
291
     0
 45
0.0
1001
ACAD
1000
AcDbSavedByObjectVersion
1070
     0
  0
VISUALSTYLE
  5
1F2
102
{ACAD_XDICTIONARY
360
139A
102
}
102
{ACAD_REACTORS
330
EF
102
}
330
EF
100
AcDbVisualStyle
  2
Shaded with edges
 70
    26
 71
     2
 72
     2
 73
     1
 90
        2
 40
-0.6
 41
30.0
 62
     5
 63
     7
 74
     1
 91
        2
 64
     7
 65
   257
 75
     2
175
     1
 42
1.0
 92
        8
 66
   257
 43
1.0
 76
     1
 77
     6
 78
     2
 67
     7
 79
     3
170
     0
171
     0
290
     0
174
     0
 93
        5
 44
0.0
173
     0
291
     0
 45
0.0
1001
ACAD
1000
AcDbSavedByObjectVersion
1070
     0
  0
VISUALSTYLE
  5
1EF
102
{ACAD_XDICTIONARY
360
1394
102
}
102
{ACAD_REACTORS
330
EF
102
}
330
EF
100
AcDbVisualStyle
  2
Shades of Gray
 70
    23
 71
     2
 72
     2
 73
     3
 90
        0
 40
-0.6
 41
-30.0
 62
     5
 63
     7
 74
     2
 91
        2
 64
     7
 65
     7
 75
     1
175
     1
 42
40.0
 92
        8
 66
     7
 43
1.0
 76
     1
 77
     6
 78
     2
 67
     7
 79
     3
170
     0
171
     0
290
     0
174
     0
 93
        1
 44
0.0
173
     0
291
     0
 45
0.0
1001
ACAD
1000
AcDbSavedByObjectVersion
1070
     0
  0
VISUALSTYLE
  5
1F0
102
{ACAD_XDICTIONARY
360
1396
102
}
102
{ACAD_REACTORS
330
EF
102
}
330
EF
100
AcDbVisualStyle
  2
Sketchy
 70
    24
 71
     1
 72
     2
 73
     2
 90
        0
 40
-0.6
 41
-30.0
 62
     5
 63
     7
 74
     2
 91
        2
 64
     7
 65
     7
 75
     1
175
     1
 42
40.0
 92
       11
 66
     7
 43
1.0
 76
     1
 77
     6
 78
     2
 67
     7
 79
     6
170
     0
171
     0
290
     0
174
     0
 93
        1
 44
0.0
173
     0
291
     0
 45
0.0
1001
ACAD
1000
AcDbSavedByObjectVersion
1070
     0
  0
VISUALSTYLE
  5
FC
102
{ACAD_XDICTIONARY
360
1384
102
}
102
{ACAD_REACTORS
330
EF
102
}
330
EF
100
AcDbVisualStyle
  2
Thicken
 70
    13
 71
     2
 72
     2
 73
     1
 90
        0
 40
-0.6
 41
-30.0
 62
     5
 63
     7
 74
     1
 91
        4
 64
     7
 65
   257
 75
     1
175
     1
 42
1.0
 92
       12
 66
     7
 43
1.0
 76
     1
 77
     6
 78
     2
 67
     7
 79
     5
170
     0
171
     0
290
     0
174
     0
 93
        1
 44
0.0
173
     0
291
     1
 45
0.0
1001
ACAD
1000
AcDbSavedByObjectVersion
1070
     0
  0
VISUALSTYLE
  5
F6
102
{ACAD_XDICTIONARY
360
1378
102
}
102
{ACAD_REACTORS
330
EF
102
}
330
EF
100
AcDbVisualStyle
  2
Wireframe
 70
     5
 71
     0
 72
     2
 73
     0
 90
        0
 40
-0.6
 41
-30.0
 62
     5
 63
     7
 74
     1
 91
        4
 64
     7
 65
   257
 75
     1
175
     1
 42
1.0
 92
        0
 66
   257
 43
1.0
 76
     1
 77
     6
 78
     2
 67
     7
 79
     3
170
     0
171
     0
290
     0
174
     0
 93
        1
 44
0.0
173
     0
291
     0
 45
0.0
1001
ACAD
1000
AcDbSavedByObjectVersion
1070
     0
  0
VISUALSTYLE
  5
1F1
102
{ACAD_XDICTIONARY
360
1398
102
}
102
{ACAD_REACTORS
330
EF
102
}
330
EF
100
AcDbVisualStyle
  2
X-Ray
 70
    25
 71
     2
 72
     2
 73
     1
 90
        1
 40
0.5
 41
-30.0
 62
     5
 63
     7
 74
     1
 91
        0
 64
     7
 65
   257
 75
     1
175
     1
 42
1.0
 92
        8
 66
     7
 43
1.0
 76
     1
 77
     6
 78
     2
 67
     7
 79
     3
170
     0
171
     0
290
     0
174
     0
 93
       13
 44
0.0
173
     0
291
     0
 45
0.0
1001
ACAD
1000
AcDbSavedByObjectVersion
1070
     0
  0
DICTIONARYVAR
  5
146
102
{ACAD_REACTORS
330
5E
102
}
330
5E
100
DictionaryVariables
280
     0
  1
1:1
  0
DICTIONARYVAR
  5
259
102
{ACAD_REACTORS
330
5E
102
}
330
5E
100
DictionaryVariables
280
     0
  1
3.500000
  0
DICTIONARYVAR
  5
25A
102
{ACAD_REACTORS
330
5E
102
}
330
5E
100
DictionaryVariables
280
     0
  1
acadiso.lin
  0
DICTIONARYVAR
  5
145
102
{ACAD_REACTORS
330
5E
102
}
330
5E
100
DictionaryVariables
280
     0
  1
STANDARD
  0
DICTIONARYVAR
  5
84
102
{ACAD_REACTORS
330
5E
102
}
330
5E
100
DictionaryVariables
280
     0
  1
STANDARD
  0
DICTIONARYVAR
  5
227
102
{ACAD_REACTORS
330
5E
102
}
330
5E
100
DictionaryVariables
280
     0
  1
Metric50
  0
DICTIONARYVAR
  5
228
102
{ACAD_REACTORS
330
5E
102
}
330
5E
100
DictionaryVariables
280
     0
  1
Metric50
  0
DICTIONARYVAR
  5
5F
102
{ACAD_REACTORS
330
5E
102
}
330
5E
100
DictionaryVariables
280
     0
  1
2
  0
DICTIONARYVAR
  5
63
102
{ACAD_REACTORS
330
5E
102
}
330
5E
100
DictionaryVariables
280
     0
  1
1
  0
DICTIONARYVAR
  5
130D
102
{ACAD_REACTORS
330
5E
102
}
330
5E
100
DictionaryVariables
280
     0
  1
0
  0
DICTIONARYVAR
  5
1AE
102
{ACAD_REACTORS
330
5E
102
}
330
5E
100
DictionaryVariables
280
     0
  1
0
  0
DICTIONARYVAR
  5
1AF
102
{ACAD_REACTORS
330
5E
102
}
330
5E
100
DictionaryVariables
280
     0
  1
0
  0
DICTIONARYVAR
  5
130B
102
{ACAD_REACTORS
330
5E
102
}
330
5E
100
DictionaryVariables
280
     0
  1
2
  0
DICTIONARYVAR
  5
130A
102
{ACAD_REACTORS
330
5E
102
}
330
5E
100
DictionaryVariables
280
     0
  1
1
  0
DICTIONARYVAR
  5
135D
102
{ACAD_REACTORS
330
5E
102
}
330
5E
100
DictionaryVariables
280
     0
  1
80.000000
  0
DICTIONARYVAR
  5
135C
102
{ACAD_REACTORS
330
5E
102
}
330
5E
100
DictionaryVariables
280
     0
  1
5.000000
  0
DICTIONARYVAR
  5
130C
102
{ACAD_REACTORS
330
5E
102
}
330
5E
100
DictionaryVariables
280
     0
  1
127
  0
DICTIONARYVAR
  5
135E
102
{ACAD_REACTORS
330
5E
102
}
330
5E
100
DictionaryVariables
280
     0
  1
2
  0
DICTIONARY
  5
13A0
330
21C
100
AcDbDictionary
280
     1
281
     1
  3
ACAD_XREC_ROUNDTRIP
360
13A1
  0
DICTIONARY
  5
1365
330
D3
100
AcDbDictionary
280
     1
281
     1
  3
ACAD_XREC_ROUNDTRIP
360
1366
  0
DICTIONARY
  5
1367
330
D7
100
AcDbDictionary
280
     1
281
     1
  3
ACAD_XREC_ROUNDTRIP
360
1368
  0
DICTIONARY
  5
1362
330
22
100
AcDbDictionary
280
     1
281
     1
  3
ACAD_XREC_ROUNDTRIP
360
1363
  0
DICTIONARY
  5
1F9
330
ED
100
AcDbDictionary
280
     1
281
     1
  3
ACAD_XREC_ROUNDTRIP
360
136A
  3
FBXASSET
360
1FA
  0
DICTIONARY
  5
1F7
330
EC
100
AcDbDictionary
280
     1
281
     1
  3
ACAD_XREC_ROUNDTRIP
360
1369
  3
FBXASSET
360
1F8
  0
DICTIONARY
  5
173
330
EE
100
AcDbDictionary
280
     1
281
     1
  3
ACAD_XREC_ROUNDTRIP
360
136B
  3
BUMPTILE
360
175
  3
DIFFUSETILE
360
174
  3
FBXASSET
360
1FB
  3
OPACITYTILE
360
176
  3
REFLECTIONTILE
360
177
  0
DICTIONARY
  5
138C
330
12E
100
AcDbDictionary
280
     1
281
     1
  3
ACAD_XREC_ROUNDTRIP
360
138D
  0
DICTIONARY
  5
139E
330
21A
100
AcDbDictionary
280
     1
281
     1
  3
ACAD_XREC_ROUNDTRIP
360
139F
  0
DICTIONARY
  5
162
330
7F
100
AcDbDictionary
280
     1
281
     1
  3
ACAD_ROUNDTRIP_2008_TABLESTYLE_CELLSTYLEMAP
360
135F
  3
ACAD_XREC_ROUNDTRIP
360
1364
  0
DICTIONARY
  5
1376
330
F5
100
AcDbDictionary
280
     1
281
     1
  3
ACAD_XREC_ROUNDTRIP
360
1377
  0
DICTIONARY
  5
1374
330
F4
100
AcDbDictionary
280
     1
281
     1
  3
ACAD_XREC_ROUNDTRIP
360
1375
  0
DICTIONARY
  5
1382
330
FB
100
AcDbDictionary
280
     1
281
     1
  3
ACAD_XREC_ROUNDTRIP
360
1383
  0
DICTIONARY
  5
138A
330
FF
100
AcDbDictionary
280
     1
281
     1
  3
ACAD_XREC_ROUNDTRIP
360
138B
  0
DICTIONARY
  5
137C
330
F8
100
AcDbDictionary
280
     1
281
     1
  3
ACAD_XREC_ROUNDTRIP
360
137D
  0
DICTIONARY
  5
1380
330
FA
100
AcDbDictionary
280
     1
281
     1
  3
ACAD_XREC_ROUNDTRIP
360
1381
  0
DICTIONARY
  5
1392
330
1E6
100
AcDbDictionary
280
     1
281
     1
  3
ACAD_XREC_ROUNDTRIP
360
1393
  0
DICTIONARY
  5
1388
330
FE
100
AcDbDictionary
280
     1
281
     1
  3
ACAD_XREC_ROUNDTRIP
360
1389
  0
DICTIONARY
  5
136C
330
F0
100
AcDbDictionary
280
     1
281
     1
  3
ACAD_XREC_ROUNDTRIP
360
136D
  0
DICTIONARY
  5
136E
330
F1
100
AcDbDictionary
280
     1
281
     1
  3
ACAD_XREC_ROUNDTRIP
360
136F
  0
DICTIONARY
  5
1370
330
F2
100
AcDbDictionary
280
     1
281
     1
  3
ACAD_XREC_ROUNDTRIP
360
1371
  0
DICTIONARY
  5
1372
330
F3
100
AcDbDictionary
280
     1
281
     1
  3
ACAD_XREC_ROUNDTRIP
360
1373
  0
DICTIONARY
  5
137A
330
F7
100
AcDbDictionary
280
     1
281
     1
  3
ACAD_XREC_ROUNDTRIP
360
137B
  0
DICTIONARY
  5
138E
330
1E4
100
AcDbDictionary
280
     1
281
     1
  3
ACAD_XREC_ROUNDTRIP
360
138F
  0
DICTIONARY
  5
1386
330
FD
100
AcDbDictionary
280
     1
281
     1
  3
ACAD_XREC_ROUNDTRIP
360
1387
  0
DICTIONARY
  5
1390
330
1E5
100
AcDbDictionary
280
     1
281
     1
  3
ACAD_XREC_ROUNDTRIP
360
1391
  0
DICTIONARY
  5
137E
330
F9
100
AcDbDictionary
280
     1
281
     1
  3
ACAD_XREC_ROUNDTRIP
360
137F
  0
DICTIONARY
  5
139C
330
1F3
100
AcDbDictionary
280
     1
281
     1
  3
ACAD_XREC_ROUNDTRIP
360
139D
  0
DICTIONARY
  5
139A
330
1F2
100
AcDbDictionary
280
     1
281
     1
  3
ACAD_XREC_ROUNDTRIP
360
139B
  0
DICTIONARY
  5
1394
330
1EF
100
AcDbDictionary
280
     1
281
     1
  3
ACAD_XREC_ROUNDTRIP
360
1395
  0
DICTIONARY
  5
1396
330
1F0
100
AcDbDictionary
280
     1
281
     1
  3
ACAD_XREC_ROUNDTRIP
360
1397
  0
DICTIONARY
  5
1384
330
FC
100
AcDbDictionary
280
     1
281
     1
  3
ACAD_XREC_ROUNDTRIP
360
1385
  0
DICTIONARY
  5
1378
330
F6
100
AcDbDictionary
280
     1
281
     1
  3
ACAD_XREC_ROUNDTRIP
360
1379
  0
DICTIONARY
  5
1398
330
1F1
100
AcDbDictionary
280
     1
281
     1
  3
ACAD_XREC_ROUNDTRIP
360
1399
  0
XRECORD
  5
13A1
102
{ACAD_REACTORS
330
13A0
102
}
330
13A0
100
AcDbXrecord
280
     1
102
DISPLAYNAME
  1
Metric50
102
FLAGS
 90
        0
  0
XRECORD
  5
1366
102
{ACAD_REACTORS
330
1365
102
}
330
1365
100
AcDbXrecord
280
     1
102
SHADEPLOT
 70
     0
102
SHADEPLOTRESLEVEL
 70
     2
102
SHADEPLOTCUSTOMDPI
 70
   300
  0
XRECORD
  5
1368
102
{ACAD_REACTORS
330
1367
102
}
330
1367
100
AcDbXrecord
280
     1
102
SHADEPLOT
 70
     0
102
SHADEPLOTRESLEVEL
 70
     2
102
SHADEPLOTCUSTOMDPI
 70
   300
  0
XRECORD
  5
1363
102
{ACAD_REACTORS
330
1362
102
}
330
1362
100
AcDbXrecord
280
     1
102
SHADEPLOT
 70
     0
102
SHADEPLOTRESLEVEL
 70
     2
102
SHADEPLOTCUSTOMDPI
 70
   300
  0
XRECORD
  5
136A
102
{ACAD_REACTORS
330
1F9
102
}
330
1F9
100
AcDbXrecord
280
     1
102
MATERIAL
148
0.0
149
0.0
149
0.0
 93
        0
 94
       63
282
     0
 72
     1
 77
     1
171
     1
175
     1
179
     1
273
     0
  0
XRECORD
  5
1FA
102
{ACAD_REACTORS
330
1F9
102
}
330
1F9
100
AcDbXrecord
280
     1
 70
     1
 90
429727718
  1
D62C5603-E3A1-4AEA-B7FB-FE5D8D0755AF
310
504B03040A0000080000CC70623B3DEE336E79000000790000001B0000006175746F6465736B2D64657369676E2D7061636B6167652E786D6C3C3F786D6C2076657273696F6E3D22312E302220656E636F64696E673D227574662D3822203F3E3C666F726D6174733E3C666F726D61743E687474703A2F2F736368656D612E
310
6175746F6465736B2E636F6D2F64657369676E2D7061636B6167652F323030393C2F666F726D61743E3C2F666F726D6174733E504B0304140006080800CC70623BD486FD9CA0000000F4000000130000005B436F6E74656E745F54797065735D2E786D6C7D8EC10E82300C865F65E91D8A1E8C310C0EEA1BF002731658846E
310
D98AC1B77784ABF1D8FE5FBFBF75BBCE937A534CCEB38643598122B6FEE978D0B0485F9C41B54DDD7D022595594E1A469170414C76A4D9A4D207E29CF43ECE46F218070CC6BECC4078ACAA135ACF422C856C0E68EA1BF5669944DDD7BCDE7B1F8E415D77AECB980613C2E4AC91FC167A2B244592486606FC29C8FD7F045B9A
310
EF7053A7E60B504B0304140006080800CC70623B853B8169EB0000007C01000008000000636F72652E786D6C8D90416EC3201045AF62CDB6C206821CC7C244919D9CA01740401C94182C03558F5F9C3852BBEB6A467FFE9B197D7EFC9E1EC5975982F5AE035262288C535E5B377690E21535501C055FBC8FBF6C503839990E
310
5619041F179FE64D52DE45E362569DD7661365082642A11EB9E920A89B99642953CC8E702F67A9EE7234257977194EC9EAE275C4EABCCF5EAD5940D4AC6F0E35A568B8F43562CD7046CD199FD07E60174276A7BE677B5EADB0E0D14EEFFB6A31321A0D82627C4084204C3F096B71DD52F6819B16635EADF63F509AF53FA164
310
5DDCD1EDDD17164090FCC8732078B56691CB33A85CD7DCC40F504B0304140006080800CC70623B55019EA25F0000007C00000007000000636E782E786D6C4DCB3B0E80201045D1AD90E915ED2CF8AC45050C11660C8261F98AB1B07AC9C97D42D718D865D3E909258CFD00CCE24AC6E326A164D74DC0B4128928FF32603847
310
2BA13128B1252AC747C6BAB984FC68F0B87FE8960A5C09FE86CFB69FBA01504B0304140006080800CC70623BDBABAAF470010000D40300000C0000006662782F636F72652E786D6CC553D16E823014FD95A6AF4B694182CC941A83FA05FB810A9511A125A5257EFE2E82712ECEB8A7F100CD39F7F69E734AF9FADC366850B6
310
AF8DCE7018308C942E4C59EB2AC3DE1D498AD15A706B8CFB56869196ADCAF00863C12B6B7C374385D14E6907A836A59A41D9F7CA615434B0C8705F7CAA5606D23BA8E84F41278B93AC54100640439DE0BDB320004D43C63716C7C399D30917DCFBBA9CD9BA8469F5B156168B24CED3F7248AC8769F27244EB73B92EED8862C
310
B7F13E0C179B3C8F979C8ECD82BBBABDAA2BAC924E9558448CBD9330242CFA08E3154B5651FCC6D215639C8EE5774DBE2B5F6CF2B5768B68963BB5F5588420E442FC700B1139D4CB01F450C1E918227C2E09DF070D8140C84E1E9AAB8F1340832A9CB13130A5F1376A908D57309505ECF2A0DF179C4E9D30F5B239B87E3823
310
7A79C6F31DE1A8A5AEC08474B03C7837EAE4938639B44E5932B833D2C6B6B279CDC613877FA26EE21F4A2A4C63EC7F29A2F301D1F9F7A0E37D145F504B0304140006080800CC70623B9C113CC27E0000009D0000000B0000006662782F636E782E786D6C4DCCDF0A83201C86E15B91DFB94BFB330DD428C8FB886521330DA7
310
6397BF1A1DECE883878F57749FCDA1B7892F1BBC047A23808C7F84D9FA55424E0BE6803A256208E9EF06C84F9B91703228B1C690F78B66B34CD9A5439DF5CF0BFBF65E35BCA1B8D6A5C6F540381E886698B5741C695F9503EBA150A2F8958E3DC3EA0B504B0304140006080800CC70623B7DF2F77C2A010000120200003100
310
00006662782F41393633353835312D344632462D344230382D423046372D3739314545314133324237412F636F72652E786D6C8D51DB8EC22014FC15C2939B0D2DB4B45643319AE817EC0F6041255A68B86CFCFC856D4D76DF7CE190393373060EDB3DC707F856CE6B6B7A480A0C81328395DA5C7B18C3057510EC3873D686
310
3F34088C18550F330C39BB3A1BA7051AAC09CA84841A2BD5020AEF55806078A44B0FFD7053A328440C89E1EFC52486BBB8AA8214A99D789CF9E05200300FC927E4FB4D5B375D43103D5527440FB843077C5AA3F5861C8F645F5787F59E95B390B318B55CE45AA638FAA2957BD7248B390B7A7CC51F9C124149C82B8C378810
310
84AB2F42B7B8DD56F413775B8C5999E9FF4471926F8AA236A1AE96B8B3CC434E5839373893369E1FAF30EA395917409EB7F26AF8801C171837A4A6AC9C89E9F9C9B1A58BA30FD6A5EF5DDDCF894B9AD9B6A59C957943A9FCAE2FD5BC4DFE03504B0304140006080800CC70623BAD7543B64E01000033030000300000006662
310
782F41393633353835312D344632462D344230382D423046372D3739314545314133324237412F636E782E786D6CD593CD6EC32010845F0571AD6CE3D48AD20813A9873E410FBD12D82434182C7EAAE6EDBB2424CD25871E7B41D6EC30B3FA84F9E67BB2E40B4234DE8DB46F1925E094D7C6ED479AD3AE5951B2113C789FEE
310
6C943839C1488B4C05DF079FE72A69D8C96C13AAD6B8631503449F83828872B949AC57D26200B826A308D316B4064D6E46FCDA41C05550DC9E483A00797BFD207EFB092A45DE9514C1BBD22178396BD39D891265658C238DEA00936C654E5E433CB65A26D9F6EDB5EBC14EBF49A45CB856E66048291F6939A9A81BB5C89177
310
38143CA680F4AA299D66A042CEB3354A2684DC9D8D178FE0D9B8B41CAAD720F880EE7EF93C0C18769E099ECC04D5A102C8049A8A05632F4DDF376CF1DE0F6BB65C2F8627B65A33C6BB62177CEBBDAD973006829F89F22E814B54F4BC2BE347F8AA8F681390B50FA73F804400B5F542E796F19FF974E7F78DB802FE05E20750
310
4B0304140006080800CC70623BE75B7789680500003C100000340000006662782F41393633353835312D344632462D344230382D423046372D3739314545314133324237412F6F626A656374732E786D6CAD575B8F9B3818FD2B887D06C22499CB8AA1CA655245D5B455A356FB305264C061D8018C6C3393D95FBFC7600890
310
A4CD5EF210B0B1BFEBF98E3F7B1FF6596ABC522E1296DF9BAE3D320D9A872C4AF2F8DE2CE5CEBA358D0FBEC719939D65A691938CDE9B6ADAF4BD98B3B2D05311DD91329583D9D5FC0F438434A7A611A644887B5384CF34233629258BA878B12322891DEFF6B66BD70BFB62634E8AE781D082709A4B588AF91C528CDA28B73F
310
1C998EEF39EABBEFA97FBD6A7C7E9553F9D3D79FE442923C3C523610337627CB87ABE99D359D4CC6D6E4FACAB5E6ABF9D2726FC6A3C5F56271377BB88362213924694B38DD99FE47C48627A1E7D49F5A8BB5E1A74C0A599ED3B0F21F1E56366B89112D681E218F0915D0D6F17AD41FBA2A369DCF6335D62ABBD39779D5DDD1
310
11D4D8DE3CBB96B2E04FB8202E41051754A1AA8E8F76B4C6DFE810B580B1547F4B84911149794252234D024EF8BBE963A95AE27B3D310A9D5C215C7960FAEE415ED75694C6AFB17BCACA5D99A60A9AA65F217B0BFC53292ACB92BF283FAD0D3621576592CB5BED907C2FA8E9DF794E35E97BEA31BED21FEB401ABB94C44839
310
DCACBF0E1C5DA8DA5B2F4DFFD32AD86F543D9E565E7056502E157C00AD2671CD534549AB752FCA9CDA00677A313F04E51B22FF19E57B300579E3C97EB29F682D92935CEC18CF901B7B54FD8C51F362B56FC72FE0B3C1EAE335EDCCBF5AEC39ADB17DC238973F804BA5E6F6BFE7AF1FB32E523BE9F3BD571418E3631DCA4D48
310
5250CF639223210A9446CA30052EDF057BD35F8329C1ECD84552BF0DC8D18BE7BCE23BFE6BD960AB4A7DE79923A103BEBD80F911CBAA2C60DB19B01CF164A5583B772EE6D3FFA56666CBCDA74DC97724A48F9A58967497E489C4D979006FD7A05E227A1EBDD0F737C623387A9C844D3709995625106D157315F8B8392CD4E0
310
A0B9A720C4BE9829CEF37EA1E13111214D53925356365ADA634861B52519DD27A00AEB808EAF0628E6F435519D446F45CF2C9CF5214F0A15B2F6D06B79DA3EE3CBF7F56780D2F4E7EF73A0F5E5B02A38D07DC852C6B7C1FBB6664213E0C39E3EBA7FF4E1AD23EA2829407C85E586727488B751B2DB9502BC7B228A3FD68B6E
310
A65A22397E690AA8D158D7E404EC8CDA235CC3B7D1898680131CEC2CDF2638C65196279577750F15884AEE19F94199155B92B13297978469D4F8D358DF0AEF7631E28DC8F0D9F437D5D39A83B2231A1D52D543813A824EF8D44BCFF2FA6A31BD1E8DAD87F1CCB526B3879935BF59CDADD5C37479BB1CDD4CA7B3556B516589
310
EF352754B706114D9C885EC9131DE6EFEB43D99AFE2391C2F958179413D7CFEF6B1B6DB1E7600F00DE6E5C67454A339A4BA2E0FBA85ED26F045D454F463DBFCE484C2F90F2E5E3666003662ED8F755951A7D1BECD5B30B550B2785C8E7320B7292A4838DDA71BBC863ED7613CAF659337A3354231D4FF4A182A54904C2898C
310
98B28C4AD0CE056CCF332A80986E571EE9DBC305BB5FEB7E509220A58D25CF042D712A806AC0AD0C657FDEF80D2D9CEAA2EE4D1C76F60BFE74219A06527D6F82DF6412526107381E55E353090704D085B52408A8913C4ED159D79BDA71BB4BC506F4831350EB6F975CD22D69BF7AC49B91A2C0A9DDA3D5CA36AD20FC478E37
310
E61844E2352865EBCB61A275A65283CAAA9DD27703B4102F5AF51EF5F573B75CBB5AD38BC845F7A49F82A0966A49C2E3EA5EA0ECD326CD965F1DB402C6FA8B51A4658C5C5E2EC9E214602E55810345408596591009A82E7E7FFACA19EEA299B14A0081A705CB3296EBC14CDF658DCD336EA6D1136881AAEB87B81AB9EE53D5
310
F5EB8BC8362082DA24122F98680A4E7930C01A0079749CEA14382A0783E5EBA5A10F8C098456A03D6A4AEB6BB881E2513747552A5DB22C7EDAF83BD5528081A365F7FF06504B0304140006080000CC70623B000000000000000000000000350000006662782F41393633353835312D344632462D344230382D423046372D37
310
39314545314133324237412F76657274696365732E62696E504B0304140006080800CC70623BF270F1330600000004000000360000006662782F41393633353835312D344632462D344230382D423046372D3739314545314133324237412F747269616E676C65732E62696E636660600000504B0304140006080000CC7062
310
3B000000000000000000000000370000006662782F41393633353835312D344632462D344230382D423046372D3739314545314133324237412F617474726962757465732E62696E504B0304140006080800CC70623B08DA0BD19000000041010000360000006662782F41393633353835312D344632462D344230382D4230
310
46372D3739314545314133324237412F6469726563746F72792E786D6C858F410AC3201045AF22B36F53E9A60B35CBEEBAE80D244E44489C6234F4F835464A48035D0DF398FF9F8AF63D0E6CC63039F212F8F9020C7D47C6792B21C5FE7403D62A1188E2E60C98D7234A5830286103A55745067B9D86B8A3CF9C7F90C11DE6
310
07FB144396D7B6A82D282E9A152AD114D5EF2CB866EEE831B8EEA07A7BB5A8D7D61A2BAAEB7FD5F70921FF497D00504B0304140006080800CC70623BEDD1DC58FD000000A00100003B0000006662782F41393633353835312D344632462D344230382D423046372D3739314545314133324237412F7265736F75726365732F
310
636F72652E786D6C8D504B6E833010BD0A9A6D65B00922041947112427E8052C33A156828DFCA97AFC9A40A576D7CDCCE87D344F8F9FBFE667F689CE6B6B3A6039850C8DB2A336530731DC4903D95970676DF82583CCC8193B5861107C72362E3BA4AC096842428D1D7107A5F7182053CF7474E0D507CE32973124857FE48B
310
540F3961CEF244279DE03EB81420DB9EAC1384436FA353E879B1B182C7A8C75DA3C7F453DF353A1075D537A7BA6464B8F535A99AE14A9A2BBD90E350DD183B5CFABE3AF262350B1EF4FC9351399401471025A527C218A1E53BAB5A5AB765F5469B96525EACF23FA6B88CFF34456DC2A1DCE36E360F82A5202F42F062ED2BAD
310
579969AFDD8A6F504B010214000A0000080000CC70623B3DEE336E79000000790000001B00000000000000000000000000000000006175746F6465736B2D64657369676E2D7061636B6167652E786D6C504B01021400140006080800CC70623BD486FD9CA0000000F40000001300000000000000000000000000B20000005B
310
436F6E74656E745F54797065735D2E786D6C504B01021400140006080800CC70623B853B8169EB0000007C010000080000000000000000000000000083010000636F72652E786D6C504B01021400140006080800CC70623B55019EA25F0000007C000000070000000000000000000000000094020000636E782E786D6C504B
310
01021400140006080800CC70623BDBABAAF470010000D40300000C00000000000000000000000000180300006662782F636F72652E786D6C504B01021400140006080800CC70623B9C113CC27E0000009D0000000B00000000000000000000000000B20400006662782F636E782E786D6C504B01021400140006080800CC70
310
623B7DF2F77C2A010000120200003100000000000000000000000000590500006662782F41393633353835312D344632462D344230382D423046372D3739314545314133324237412F636F72652E786D6C504B01021400140006080800CC70623BAD7543B64E010000330300003000000000000000000000000000D2060000
310
6662782F41393633353835312D344632462D344230382D423046372D3739314545314133324237412F636E782E786D6C504B01021400140006080800CC70623BE75B7789680500003C10000034000000000000000000000000006E0800006662782F41393633353835312D344632462D344230382D423046372D3739314545
310
314133324237412F6F626A656374732E786D6C504B01021400140006080000CC70623B0000000000000000000000003500000000000000000000000000280E00006662782F41393633353835312D344632462D344230382D423046372D3739314545314133324237412F76657274696365732E62696E504B01021400140006
310
080800CC70623BF270F133060000000400000036000000000000000000000000007B0E00006662782F41393633353835312D344632462D344230382D423046372D3739314545314133324237412F747269616E676C65732E62696E504B01021400140006080000CC70623B0000000000000000000000003700000000000000
310
000000000000D50E00006662782F41393633353835312D344632462D344230382D423046372D3739314545314133324237412F617474726962757465732E62696E504B01021400140006080800CC70623B08DA0BD1900000004101000036000000000000000000000000002A0F00006662782F41393633353835312D344632
310
462D344230382D423046372D3739314545314133324237412F6469726563746F72792E786D6C504B01021400140006080800CC70623BEDD1DC58FD000000A00100003B000000000000000000000000000E1000006662782F41393633353835312D344632462D344230382D423046372D3739314545314133324237412F7265
310
736F75726365732F636F72652E786D6C504B0506000000000E000E0080040000641100000000
  0
XRECORD
  5
1369
102
{ACAD_REACTORS
330
1F7
102
}
330
1F7
100
AcDbXrecord
280
     1
102
MATERIAL
148
0.0
149
0.0
149
0.0
 93
        0
 94
       63
282
     0
 72
     1
 77
     1
171
     1
175
     1
179
     1
273
     0
  0
XRECORD
  5
1F8
102
{ACAD_REACTORS
330
1F7
102
}
330
1F7
100
AcDbXrecord
280
     1
 70
     1
 90
429727718
  1
30362254-06B7-45E0-A893-8CFA70E3D6BC
310
504B03040A0000080000CC70623B3DEE336E79000000790000001B0000006175746F6465736B2D64657369676E2D7061636B6167652E786D6C3C3F786D6C2076657273696F6E3D22312E302220656E636F64696E673D227574662D3822203F3E3C666F726D6174733E3C666F726D61743E687474703A2F2F736368656D612E
310
6175746F6465736B2E636F6D2F64657369676E2D7061636B6167652F323030393C2F666F726D61743E3C2F666F726D6174733E504B0304140006080800CC70623BD486FD9CA0000000F4000000130000005B436F6E74656E745F54797065735D2E786D6C7D8EC10E82300C865F65E91D8A1E8C310C0EEA1BF002731658846E
310
D98AC1B77784ABF1D8FE5FBFBF75BBCE937A534CCEB38643598122B6FEE978D0B0485F9C41B54DDD7D022595594E1A469170414C76A4D9A4D207E29CF43ECE46F218070CC6BECC4078ACAA135ACF422C856C0E68EA1BF5669944DDD7BCDE7B1F8E415D77AECB980613C2E4AC91FC167A2B244592486606FC29C8FD7F045B9A
310
EF7053A7E60B504B0304140006080800CC70623B1EC5D7A3EB0000007C01000008000000636F72652E786D6C8D90416EC3201045AF82665B6103C6756C6122AB4D4ED00B204C5C94182C03558F5F9C3852BBEB6A467FFE9B197D71FC9E6FE8CBACC17AD7032D0820E3B41FAD9B7A48F1820F808E52ACDEC75F36404ECDA687
310
4D0629A6D5A76597B477D1B89855E747B38B2A041301E95B6E7A08FAD3CCAA50296647B8168BD2573599823EBB0CA76447F43862C7BCCF5EAC59410E4DDD9C7973C2755553CCCFA4C603E3040F1565ED3B1FDE4E432BCA0D9622DAF9795FAF464533826484B498524CD807E51D79ED187F21878E10516EF63F505AC67F42C9
310
BA58B1FDDD071640D2FCC87D2045B96591CB3DA85CB7DCE40F504B0304140006080800CC70623B55019EA25F0000007C00000007000000636E782E786D6C4DCB3B0E80201045D1AD90E915ED2CF8AC45050C11660C8261F98AB1B07AC9C97D42D718D865D3E909258CFD00CCE24AC6E326A164D74DC0B4128928FF32603847
310
2BA13128B1252AC747C6BAB984FC68F0B87FE8960A5C09FE86CFB69FBA01504B0304140006080800CC70623B8C9102E971010000D40300000C0000006662782F636F72652E786D6CC5535B6E833010BC8AE5DF0A6C08340F1947A84D4ED00B38C6A128602363A31CBFCB234A53A551FA553EC09AD9F5CE8C31DB9E9B1AF5CA
310
7695D1198E428A91D2D214952E33ECDD315861B4E5CC1AE3BE9561A445A3323CC098B3D21ADFCE9034DA29ED00D5A6503328BA4E398C640D8B0C77F253352214DE4145770A5B214FA2546114020D759C75CE8200340D19DE981F0F6746269C33EFAB6266AB02A655C74A59CCF365BADC27CB5D902ED22848F6340DF238A141
310
BE88E2F57B92BFEDF23523433367AE6A2EEAA455C2A902F398D2751045018D3FA264435F3771F242571B4A1919CA6F9A7C5B3CD9E42BED16F12C776AEB308F40C848FC700B1139D4891EF410CEC810227CC6846F8386402064270EF5C5C709A05E49676C024C61FC95EA45ED154CA5211D1FF4FB8291A913A68E9B83EBBB33
310
E2A7673CDE118E5AE8124C0807CB8377834E366998436B950D7A7746DAD846D4CFD978E0F04FD455FC5D49D2D4C6FE9722321F10997F0F32DC47FE05504B0304140006080800CC70623BFFEA85907E0000009D0000000B0000006662782F636E782E786D6C4DCCD10A83201886E15B91FFDC95D95A811AB6F23E625948A6C3
310
E9D8E5AF46073BFAE0E1E365ED67B3E8ADC3CB78C7815C7240DA3DFC64DCC221C519D7805AC182F7F1EF06C88D9BE6703008B6049F9E274D7A1E938DBB5AE3D6131B2589BA0D3D965551E0B2EA732C9B9A624AAEB41E3A557677029960D9AFB4EF11165F504B0304140006080800CC70623B4FEEA4082C0100001202000031
310
0000006662782F39464131463745442D413632322D343644302D413938332D3331353338454246344243312F636F72652E786D6C8D515B6EC32010BC0AE2AB55850DD871ED0813254D72825EC00192A2C460F1A872FC42ED48ED5F7E00CDCECCCEB26C731F6FE05B39AFADE921293004CA082BB5B9F43086336A21D870E6AC
310
0D7F68109861543DCC30E4ECE26C9C164858139409093556AA051CBC570102714B8F1E7AF1A5C6A11862480C7F2DA6415C878B2A4891CA89C7990F2E050073937C42DE1DB7E4F87ED8A36D4329AA9B3D46DBAEAD504556557BD81DEBDD0761E52CE42C462D17B996298E3E6BE59E35C962CE821E1FF18553435012728A7187
310
0841987E927A8D9B35ADDF70BBC6989599FE4F1427F9A4286A132ABAC49D651EF234CD5CE04CDA78BA3DC2A8FB645D00B9DF8B57E215725C60BCA2A463E54C4CE327C7A65E1C7DB02E7DEFCBF594B864C5CA6CDBD49C957943E9FA5D5FBAF336F90F504B0304140006080800CC70623BAD7543B64E01000033030000300000
310
006662782F39464131463745442D413632322D343644302D413938332D3331353338454246344243312F636E782E786D6CD593CD6EC32010845F0571AD6CE3D48AD20813A9873E410FBD12D82434182C7EAAE6EDBB2424CD25871E7B41D6EC30B3FA84F9E67BB2E40B4234DE8DB46F1925E094D7C6ED479AD3AE5951B2113C
310
789FEE6C943839C1488B4C05DF079FE72A69D8C96C13AAD6B8631503449F83828872B949AC57D26200B826A308D316B4064D6E46FCDA41C05550DC9E483A00797BFD207EFB092A45DE9514C1BBD22178396BD39D891265658C238DEA00936C654E5E433CB65A26D9F6EDB5EBC14EBF49A45CB856E66048291F6939A9A81BB5
310
C8917738143CA680F4AA299D66A042CEB3354A2684DC9D8D178FE0D9B8B41CAAD720F880EE7EF93C0C18769E099ECC04D5A102C8049A8A05632F4DDF376CF1DE0F6BB65C2F8627B65A33C6BB62177CEBBDAD973006829F89F22E814B54F4BC2BE347F8AA8F681390B50FA73F804400B5F542E796F19FF974E7F78DB802FE05
310
E207504B0304140006080800CC70623B16AB87BA640500003C100000340000006662782F39464131463745442D413632322D343644302D413938332D3331353338454246344243312F6F626A656374732E786D6CAD575B6FA33818FD2B887DE6924B3BED8A326A92B68A663B534DD4D13E548A0C38942D60649B369D5FBFC7
310
600890A493BDE42160637FD7F31D7FF63E6FB3D478A55C242CBF3247B66B1A340F5994E4F19559CA8D75611A9F7D8F33263BCB4C232719BD32D5B4E97B316765A1A722BA21652A07B3B7B33F0D11D29C9A46981221AE4C113ED38CD8A4942CA2E2C58E882476BCD9DA23BB5ED8171B73523C0F841684D35CC252CCE79062D4
310
468DFA43D7747CCF51DF7D4FFDEB5593E3AB9CCA9FBEFE241792E4E19EB28198C968BAB8199F5D5A67D3E9C49A9E8F47D6EC76B6B0469F26EEFC7C3EBFBCBEB98462213924694B38DD98FE1D62C393D073EA4FADC5DAF04326852CCF6958F90F0F2B9BB5C48816348F90C7840A68EB78EDF68723159BCEE7891A6B95DDE9D3
310
BCEAEEE8086A6C6F9E5D4B59F0175C10A7A0820BAA5055C7473B5AE3CFDD452D602CD5DF12616444529E90D448938013FE6EFA58AA96F85E4F8C42275708571E98FE6827AF6B2B4AE3D7D83D64E5A64C53054DD3AF90BD06FEA9149565C94FCA0F6B834DC85599E4F2423B24DF0B6AFA979E534DFA9E7A4CC6FA631D486393
310
921829879BF5D781A373557BCB85E97FB90DB62B558F8795179C15944B051F40AB495CF35451D26A4727654E6D8033BD98EF82F21D91FF8AF2DD9982BCF1643BDD4EB516C9492E368C67C88DED563FC36D5EACF66DFF057C3658BDBFA69DF9578B3DA735B64F18C7F20770A9D45CFCF7FCF563D6456A277DBEF78A02637CA2
310
43B90A490AEAB94F72244481D24819A6C0E59B606BFA4B3025981DBB48EAB701D97BF19C577CC77F2D1B6C55A9EF3C732474C0B727303F625995056C3B02963D9EAC146BE78EC5FCEC7FA999EBC5EACBAAE41B12D27B4D2C0BBA49F244E2ECDC81B76B502F113D8F5EE8FB1BE3111CDD4FC2AA9B844CAB1288B68AB90A7CDC
310
1C166AB0D3DC5310625FCC14E779BFD0709F8890A629C9292B1B2DED31A4B0DA928CEE135085754027E3018A397D4D5427D15BD1330B677DC8934285AC3DF45A9EB68FF8F2B8FC0A509AFEECFD0FF2DE25CC6047F7214B195F07EFEB9A094D800F7BFAE8FED187B78EA8A3A400F115961BCAD1215E47C966530AF0EE8128FE
310
58CEBB996A8964FFA529A046635D9353B0336A8F700DDF46271A024E70B0B37C9DE01847591E54DED53D54202AB947E4076556AC49C6CA5C9E1226B7F1A7B1BE15DEED62C41B91E1B3E9AFAAA735036547343A925075041DF0A9979E893B391F8FCFA6967B3EFB644DCF6E5CEBFAE272625DCC6FAF3FB93793C5F90CE1EF57
310
407342756B10D1C489E8953CD1617E5CEECAD6F4EF8914CE5D5D504E5C3F1F9736DA62CFC11E00BCDDB8CC8A9466349744C1F75EBDA4DF09BA8A9E8C7A7E9991989E20E5DBDD6A6003664ED8F7A04A8DBE0DF6EAD9B9AA858342E47399053949D2C146EDB85DE4B176BB0965FBAC19BD19AA918E27FA50C1D22402E144464C
310
59462568E704B6E71915404CB72B8FF4EDE184DDAF753F284990D2C6926782963815403548A70C657FDEF80D2D9CEAA2AE4C1C76F60BFE74219A06527D6582DF6412526107381E55E353090704D085B52408D0933C4ED159D79BDA71BB4BC506F4831350EB6F979CD22D69BF7AC49B91A2C0A9DDA3D5CA36AD20FC478E37E6
310
1844E2352865EBCB6EA275A652E3836BE04EFB400BF1A2556F515F1FBB35B2AB35BD889C744FFA1004B5544B121E57F70215746DD2F5E2C1412B602CBF19455AC6C8E5E9922C4E01E65215385004546899059180EAFCF7A707CE7017CD8CDB0410789AB32C63B91E5CEBBBACB17AC6CD347A022D5075FD106377347AAABA7E
310
7D11590744509B44E205134DC1290F06580320F78E537D3D73540E06CB970B431F185308AD40BBD794D6D77003C5A36E8EAA54BA64597CD8F83BD552A080A365F7FF06504B0304140006080000CC70623B000000000000000000000000350000006662782F39464131463745442D413632322D343644302D413938332D3331
310
353338454246344243312F76657274696365732E62696E504B0304140006080800CC70623BF270F1330600000004000000360000006662782F39464131463745442D413632322D343644302D413938332D3331353338454246344243312F747269616E676C65732E62696E636660600000504B0304140006080000CC70623B
310
000000000000000000000000370000006662782F39464131463745442D413632322D343644302D413938332D3331353338454246344243312F617474726962757465732E62696E504B0304140006080800CC70623B08DA0BD19000000041010000360000006662782F39464131463745442D413632322D343644302D413938
310
332D3331353338454246344243312F6469726563746F72792E786D6C858F410AC3201045AF22B36F53E9A60B35CBEEBAE80D244E44489C6234F4F835464A48035D0DF398FF9F8AF63D0E6CC63039F212F8F9020C7D47C6792B21C5FE7403D62A1188E2E60C98D7234A5830286103A55745067B9D86B8A3CF9C7F90C11DE607
310
FB144396D7B6A82D282E9A152AD114D5EF2CB866EEE831B8EEA07A7BB5A8D7D61A2BAAEB7FD5F70921FF497D00504B0304140006080800CC70623B0D6EF93BFE000000A00100003B0000006662782F39464131463745442D413632322D343644302D413938332D3331353338454246344243312F7265736F75726365732F63
310
6F72652E786D6C8D50596E833010BD0A9ADFCA60B334011947A8694ED00B586642AC041B79A97AFC9A40A5F6AF3F33A3B7689E1E3F7DCD8FEC139DD7D6F4C0720A191A65476DA61E62B892236427C19DB5E1970C322367EC618541F0C9D9B8EC90B226A009093576C41D94DE63804C3DD2D18357379C652E63480A7FCF17A9
310
EE72C29CE5894E3AC17D702940B63D59270887DE46A7D0F36263058F518FBB468FE9A7BE6A7420864373B8D4873369AA8691FA421B3294352543C5CAF65C0F6FEF43CB8BD52C78D0F34F46E550061C419494B6843142CB0F5677F4B52BEB177AEC28E5C52AFF638ACBF84F53D42654E51E77B379102C05791282176B5F693D
310
CB4C7BED567C03504B010214000A0000080000CC70623B3DEE336E79000000790000001B00000000000000000000000000000000006175746F6465736B2D64657369676E2D7061636B6167652E786D6C504B01021400140006080800CC70623BD486FD9CA0000000F40000001300000000000000000000000000B20000005B
310
436F6E74656E745F54797065735D2E786D6C504B01021400140006080800CC70623B1EC5D7A3EB0000007C010000080000000000000000000000000083010000636F72652E786D6C504B01021400140006080800CC70623B55019EA25F0000007C000000070000000000000000000000000094020000636E782E786D6C504B
310
01021400140006080800CC70623B8C9102E971010000D40300000C00000000000000000000000000180300006662782F636F72652E786D6C504B01021400140006080800CC70623BFFEA85907E0000009D0000000B00000000000000000000000000B30400006662782F636E782E786D6C504B01021400140006080800CC70
310
623B4FEEA4082C0100001202000031000000000000000000000000005A0500006662782F39464131463745442D413632322D343644302D413938332D3331353338454246344243312F636F72652E786D6C504B01021400140006080800CC70623BAD7543B64E010000330300003000000000000000000000000000D5060000
310
6662782F39464131463745442D413632322D343644302D413938332D3331353338454246344243312F636E782E786D6C504B01021400140006080800CC70623B16AB87BA640500003C1000003400000000000000000000000000710800006662782F39464131463745442D413632322D343644302D413938332D3331353338
310
454246344243312F6F626A656374732E786D6C504B01021400140006080000CC70623B0000000000000000000000003500000000000000000000000000270E00006662782F39464131463745442D413632322D343644302D413938332D3331353338454246344243312F76657274696365732E62696E504B01021400140006
310
080800CC70623BF270F133060000000400000036000000000000000000000000007A0E00006662782F39464131463745442D413632322D343644302D413938332D3331353338454246344243312F747269616E676C65732E62696E504B01021400140006080000CC70623B0000000000000000000000003700000000000000
310
000000000000D40E00006662782F39464131463745442D413632322D343644302D413938332D3331353338454246344243312F617474726962757465732E62696E504B01021400140006080800CC70623B08DA0BD190000000410100003600000000000000000000000000290F00006662782F39464131463745442D413632
310
322D343644302D413938332D3331353338454246344243312F6469726563746F72792E786D6C504B01021400140006080800CC70623B0D6EF93BFE000000A00100003B000000000000000000000000000D1000006662782F39464131463745442D413632322D343644302D413938332D3331353338454246344243312F7265
310
736F75726365732F636F72652E786D6C504B0506000000000E000E0080040000641100000000
  0
XRECORD
  5
136B
102
{ACAD_REACTORS
330
173
102
}
330
173
100
AcDbXrecord
280
     1
102
MATERIAL
148
0.0
149
0.0
149
0.0
 93
        0
 94
       63
282
     0
 72
     1
 77
     1
171
     1
175
     1
179
     1
273
     0
  0
XRECORD
  5
175
102
{ACAD_REACTORS
330
173
102
}
330
173
100
AcDbXrecord
280
     1
270
     1
271
     1
  0
XRECORD
  5
174
102
{ACAD_REACTORS
330
173
102
}
330
173
100
AcDbXrecord
280
     1
270
     1
271
     1
  0
XRECORD
  5
1FB
102
{ACAD_REACTORS
330
173
102
}
330
173
100
AcDbXrecord
280
     1
 70
     0
 90
1673772943
  1
ECE7A1D2-D628-4531-984C-D00F80459256
310
504B03040A0000080000CC70623B3DEE336E79000000790000001B0000006175746F6465736B2D64657369676E2D7061636B6167652E786D6C3C3F786D6C2076657273696F6E3D22312E302220656E636F64696E673D227574662D3822203F3E3C666F726D6174733E3C666F726D61743E687474703A2F2F736368656D612E
310
6175746F6465736B2E636F6D2F64657369676E2D7061636B6167652F323030393C2F666F726D61743E3C2F666F726D6174733E504B0304140006080800CC70623BD486FD9CA0000000F4000000130000005B436F6E74656E745F54797065735D2E786D6C7D8EC10E82300C865F65E91D8A1E8C310C0EEA1BF002731658846E
310
D98AC1B77784ABF1D8FE5FBFBF75BBCE937A534CCEB38643598122B6FEE978D0B0485F9C41B54DDD7D022595594E1A469170414C76A4D9A4D207E29CF43ECE46F218070CC6BECC4078ACAA135ACF422C856C0E68EA1BF5669944DDD7BCDE7B1F8E415D77AECB980613C2E4AC91FC167A2B244592486606FC29C8FD7F045B9A
310
EF7053A7E60B504B0304140006080800CC70623BD9DDAED0EC0000007C01000008000000636F72652E786D6C8D90416EC3201045AF82665B61836D9CD8C2444DD39CA01740405C94182C03558F5F9C3852BBEB6A467FFE9B197D7EF89E6EE8CB2CC17A37002D0820E394D7D68D03A478C17B4007C117EFE32F1B20272733C0
310
2A83E0E3E2D3BC49CABB685CCCAAF3DA6CA20CC14440EA969B0182FA34932C648AD911AEC52CD5558EA6A0CF2EC329598D1E47ACCEFBECC59A050463A7EA5833865FEBDD0E37353BE3EE8DBDE3F6786A48D375FBF6CC78B9C282473B3DEFABC5C86834888A900E538A49F5419B9EB47DD5BC907D4F082F57FB1F28CDFA9F50
310
B22ED6D5F6EE030B20687EE43E10BC5CB3C8E51E54AE6B6EE207504B0304140006080800CC70623B55019EA25F0000007C00000007000000636E782E786D6C4DCB3B0E80201045D1AD90E915ED2CF8AC45050C11660C8261F98AB1B07AC9C97D42D718D865D3E909258CFD00CCE24AC6E326A164D74DC0B4128928FF326038
310
472BA13128B1252AC747C6BAB984FC68F0B87FE8960A5C09FE86CFB69FBA01504B0304140006080800CC70623BA24EB22D72010000D40300000C0000006662782F636F72652E786D6CC5535B6E833010BC8AE5DF0A6C5E49888CA3A6694ED00B38E05014B091B1518EDFE511A5A9D228FD2A1F60CDEC7A67C6986DCE4D8D7A
310
69BA4AAB0C073EC548AA5C17952A33ECECD15B61B4E1CC686DBF9561A44423333CC098B3D268D7CE50AE9595CA02AA74216750749DB418E5352C32DCE59FB211BE70162ABA93DF8AFC244AE9073ED050C759670D0840D390E18DF9F1706664C23973AE2A66B62A605A75ACA4C13C4976E1364A12EF355A2EBD384AF65EFA96
310
BC7B8BED2EA6719AAE16FB8491A199335B351775B991C2CA02F390D2D40B028F861F41BCA68B7518BFD0D59A524686F29B26D7164F36B94AD9289CE54E6D1DE6010819891F6E21228B3AD1831EC219194284CF98F06DD01008846CC5A1BEF83801D4CBDC6A1303536877A57A513B0953A94FC707FDBE6064EA84A9E3E6E0FA
310
EE8CF0E9198F7784A316AA0413C2C2F2E0ECA0934D1AE6D05A69BCDE9E91D2A611F573361E38FC1375157F5752AE6B6DFE4B11990F88CCBF0719EE23FF02504B0304140006080800CC70623B408A7D3B7C0000009D0000000B0000006662782F636E782E786D6C4DCCD10A83201886E15B91FFDC552A92A0064DBC8F581632
310
D3703A76F9ABD1C18E3E78F878E5F0D9027ABBFCF2292AE86E2D20171F69F6715550CB827B40839639A5F2770314A7CD293819B45C73AAFB45B35BA61ACAA1C1C7E7855C58C15BC331339661262CC762340413D68D77DA5B42298546CBE6573AF60CEB2F504B0304140006080800CC70623B449FB9BD290100001202000031
310
0000006662782F36394639363044362D344446342D343946362D394244322D3234314243333846323333332F636F72652E786D6C8D515B6EC32010BC0AE22B55850D98B871848994463E412FE002495162B07854397EA176A4F62F3F2C9A9D991D587EB84F37F0AD7D30CEF6905418026DA553C65E7A98E219ED203808EE9D
310
8B7F6810D871D23D2C3014FCE25D9A57483A1BB58D19B54EE9151C43D0110279CB971E06F9A5A7B11A53CC8C70ADE6515EC78BAE4895DB992778883E0700CB907242D17643D7E2538BD869608875438BBAE38922CAC8F1BDD90DB4691A5E2F42C153326A951B95E398B3D1FE599322163C9AE9115F7A3D46ADA0A018778810
310
84E907617BDCEE297BC5BB3DC6BC2EF47FA234AB2745C9D8D8D035EE220B50105E2F0DC1954B9FB747187D9F9D8FA0CCDB042D5FA0C015C65B42DF78BD10F3F3B363CB56C7109DCFDFBBB97E662ED92EB62D13BC2E1BCAE5777DB9966D8A1F504B0304140006080800CC70623BAD7543B64E01000033030000300000006662
310
782F36394639363044362D344446342D343946362D394244322D3234314243333846323333332F636E782E786D6CD593CD6EC32010845F0571AD6CE3D48AD20813A9873E410FBD12D82434182C7EAAE6EDBB2424CD25871E7B41D6EC30B3FA84F9E67BB2E40B4234DE8DB46F1925E094D7C6ED479AD3AE5951B2113C789FEE
310
6C943839C1488B4C05DF079FE72A69D8C96C13AAD6B8631503449F83828872B949AC57D26200B826A308D316B4064D6E46FCDA41C05550DC9E483A00797BFD207EFB092A45DE9514C1BBD22178396BD39D891265658C238DEA00936C654E5E433CB65A26D9F6EDB5EBC14EBF49A45CB856E66048291F6939A9A81BB5C89177
310
38143CA680F4AA299D66A042CEB3354A2684DC9D8D178FE0D9B8B41CAAD720F880EE7EF93C0C18769E099ECC04D5A102C8049A8A05632F4DDF376CF1DE0F6BB65C2F8627B65A33C6BB62177CEBBDAD973006829F89F22E814B54F4BC2BE347F8AA8F681390B50FA73F804400B5F542E796F19FF974E7F78DB802FE05E20750
310
4B0304140006080800CC70623B8D05915C650500003B100000340000006662782F36394639363044362D344446342D343946362D394244322D3234314243333846323333332F6F626A656374732E786D6CAD575B6FA33814FE2B887D06429276DA1565D4266D158D3A339A6846FB502932E050B66023DB74D2FDF5FB190C01
310
9276B2973C046C8ECFF53B17071F77456EBD502133CEAE6CDF9DD81665314F32965ED995DA3A17B6F5310C04E7AA47665B8C14F4CAD6DB7618A48257A5D94AE89654B91AEDDEDDFC61C998326A5B714EA4BCB265FC440BE2924AF184CA6737218AB8E976E7FA6E4338649B0A523E8D98964450A6A029F619B8588D52FE7039
310
B1BD30F0F4F730D0FF866AF6369557DB33949F31A9088B0F848DD8CCFCF9F2767A76E99CCDE733677E3EF59D9BBB9BA5E37F984D16E78BC5E5F5ED25044B25C0C96822E8D60EEFE11B91C581D77CEA34368A1F5329E68CD1B8B61F16D63A1B8E092D294B10C78C4A48EB593D192E7DED9BDEE7995E1B91FDEDD3ACEA9FE831
310
6A756F9F7D4D79F4274C90A7A04248AA51D5F8C718DAE06FB2F75AC4796EBE65D22A88A22223B995679120E2D50E41AA49C260C046A35368846B0BECD0DFF3EBEB8AD4F835768F69B9ADF25C43D30E6B646F807FAA64AD59F61715C7A54127C4AACA98BA3006A9D792DAE165E0D59B61A01FB3A9F9D838D2DAE62445C86166
310
F37564E842E7DE6A69879FEEA2DD5AE7E371E1A5E025154AC307D06A03D73EB5978C58FFA4C8E9033066E0F3BD53BEC1F39F91BE7B55103791EDE6BBB991A2046172CB4581D8B893FA674DDA17A77B3B7C413D1B511FD2743BFF8A38F03A658705E3ADF8015C3A3417FF3D7E439FF591DA0B5F18BC20C1B8981957AE6392A3
310
F43C640C01D1A0B4728E2DD4F26DB4B3C3152A252A3B4E913CEC1C72F012782FF88EFF8637AA552DBEF76408E8A8DE9E50F9E1CB3A2DA0DB1B6039A893B56063DC5B3E3FFB5F72E67AB9FEB4AEC496C4F4C1149625DD662C53E89D7BF0F6151A046260D1337DFDC94502430F83B0EE07A130A224BCAD7DAE1D9FB6CD422FF6
310
920702629C4BB9AE79C12F243C6432A6794E18E5552BA56B431AAB5D91317302B2B071E86C3A42B1A02F999E24061403B5D0EB639195DA655DD3EBEAB4FB862DDF579F014AD0E73C22F99E28DA57FB98E75C6CA2D74D53086D600F4786E0FE3144B771A8A7B900F03594DB8A633CBC49B2EDB69228BB479CF863B5E807AAAB
310
23872F6DFEB4129B949CA33823F58830E86D65621E10047D9DB34D862E8EAC3C2ABC2F7B2C40D67CDFE01F5545B92105AF983AC54D93D69E56FB8E797F88913F898A9FEC705D3F9D1B54EC8426FB500D40A03BD0119B06E1B95DDC7EB8F6975367793EBD70E66733DFB9BC982F9CE564727731999F5D4ECFCE3B8D6A4DC2A0
310
6D50FD148437D110834A64C6CDDF57FBACB5C307A2A477DFE4939736CFEF2B175371E0E10CF0DD1D5C15654E0BCA14D1E87DD02FF93782A162C0A3D95F1524A52770F972BF1EE9809D13CE7DD599467F8ECE9ADD85CE85A34CD45355448C64F9E8A031DC2D596ACC6E5DD93D9B82DE2EF5CAF81363A8E47996A0DE24564A79
310
4115AACE09C55E14540231FDA13C319787134EBF34E3A022514E5B4D9E0826E25C02D5805B15ABE1BEF51B26383D445DD9E875EE33FE4C22DA16427D65A3BCA92CA6D28DD01DF5DC53330704308475351050232CCD31583787BA75774AFB06E5070DD0C8EF484E19968C5D83BA5B90B244D31E54D55A372320FE4786B7EA58
310
44E135AA5467CB7EA333A61683CC6A8C3257034C10CF46F40EF9F5BE59BE5BD30C3C72D235E95D10345C1D45445A5F0BB47E46A5EBE5570F9380B5FA629579952296A773720405982B9DE04011506178964401AA8BDF1FBF0A8EAB6861DD6580C0E38217056766716DAEB2D6FA0917D3E4116581EADB879C4E7CFFB11EFACD
310
3D641311495D92C8676CB409A72D18610D803CE8A626049E8EC1887CB5B44CC39883690DDA8399B4B9855B481E7D71D4A9D22F96E5BB73BF5793020C02137BF837504B0304140006080000CC70623B000000000000000000000000350000006662782F36394639363044362D344446342D343946362D394244322D32343142
310
43333846323333332F76657274696365732E62696E504B0304140006080800CC70623BF270F1330600000004000000360000006662782F36394639363044362D344446342D343946362D394244322D3234314243333846323333332F747269616E676C65732E62696E636660600000504B0304140006080000CC70623B0000
310
00000000000000000000370000006662782F36394639363044362D344446342D343946362D394244322D3234314243333846323333332F617474726962757465732E62696E504B0304140006080800CC70623B08DA0BD19000000041010000360000006662782F36394639363044362D344446342D343946362D394244322D
310
3234314243333846323333332F6469726563746F72792E786D6C858F410AC3201045AF22B36F53E9A60B35CBEEBAE80D244E44489C6234F4F835464A48035D0DF398FF9F8AF63D0E6CC63039F212F8F9020C7D47C6792B21C5FE7403D62A1188E2E60C98D7234A5830286103A55745067B9D86B8A3CF9C7F90C11DE607FB14
310
4396D7B6A82D282E9A152AD114D5EF2CB866EEE831B8EEA07A7BB5A8D7D61A2BAAEB7FD5F70921FF497D00504B0304140006080800CC70623BCA768048FE000000A00100003B0000006662782F36394639363044362D344446342D343946362D394244322D3234314243333846323333332F7265736F75726365732F636F72
310
652E786D6C8D50596E833010BD0A9ADFCA60D600328E9AA639412F609909B1126CE4A5EAF16B0295DABFFECC8CDEA2797AECF8353F924FB44E193D409E5248504B332A3D0D10FC95B4901C39B3C6F85F3248B49871801506CE266BC2B243D2688FDA47549B11775038871E12F988C7004EDE7016A9083E2ADC3D5D84BC8B09
310
D33C8D74D471E6BC8D0192EDC93A815B742658898E651BCB59086ADC356A8C3FD555A1055ED7E7E254D615792D0F075295F585746FF53B694EE78A565DD736979A65AB9933AFE69F8CD2A2F038022F28ED489E135A7CE4554F9BBEA85E68DB53CAB255FEC71496F19FA6A0B42F8B3DEE6673C0F318E4497096AD7DC5F52C33
310
EEB55BFE0D504B010214000A0000080000CC70623B3DEE336E79000000790000001B00000000000000000000000000000000006175746F6465736B2D64657369676E2D7061636B6167652E786D6C504B01021400140006080800CC70623BD486FD9CA0000000F40000001300000000000000000000000000B20000005B436F
310
6E74656E745F54797065735D2E786D6C504B01021400140006080800CC70623BD9DDAED0EC0000007C010000080000000000000000000000000083010000636F72652E786D6C504B01021400140006080800CC70623B55019EA25F0000007C000000070000000000000000000000000095020000636E782E786D6C504B0102
310
1400140006080800CC70623BA24EB22D72010000D40300000C00000000000000000000000000190300006662782F636F72652E786D6C504B01021400140006080800CC70623B408A7D3B7C0000009D0000000B00000000000000000000000000B50400006662782F636E782E786D6C504B01021400140006080800CC70623B
310
449FB9BD290100001202000031000000000000000000000000005A0500006662782F36394639363044362D344446342D343946362D394244322D3234314243333846323333332F636F72652E786D6C504B01021400140006080800CC70623BAD7543B64E010000330300003000000000000000000000000000D20600006662
310
782F36394639363044362D344446342D343946362D394244322D3234314243333846323333332F636E782E786D6C504B01021400140006080800CC70623B8D05915C650500003B10000034000000000000000000000000006E0800006662782F36394639363044362D344446342D343946362D394244322D32343142433338
310
46323333332F6F626A656374732E786D6C504B01021400140006080000CC70623B0000000000000000000000003500000000000000000000000000250E00006662782F36394639363044362D344446342D343946362D394244322D3234314243333846323333332F76657274696365732E62696E504B010214001400060808
310
00CC70623BF270F13306000000040000003600000000000000000000000000780E00006662782F36394639363044362D344446342D343946362D394244322D3234314243333846323333332F747269616E676C65732E62696E504B01021400140006080000CC70623B00000000000000000000000037000000000000000000
310
00000000D20E00006662782F36394639363044362D344446342D343946362D394244322D3234314243333846323333332F617474726962757465732E62696E504B01021400140006080800CC70623B08DA0BD190000000410100003600000000000000000000000000270F00006662782F36394639363044362D344446342D
310
343946362D394244322D3234314243333846323333332F6469726563746F72792E786D6C504B01021400140006080800CC70623BCA768048FE000000A00100003B000000000000000000000000000B1000006662782F36394639363044362D344446342D343946362D394244322D3234314243333846323333332F7265736F
310
75726365732F636F72652E786D6C504B0506000000000E000E0080040000621100000000
  0
XRECORD
  5
176
102
{ACAD_REACTORS
330
173
102
}
330
173
100
AcDbXrecord
280
     1
270
     1
271
     1
  0
XRECORD
  5
177
102
{ACAD_REACTORS
330
173
102
}
330
173
100
AcDbXrecord
280
     1
270
     1
271
     1
  0
XRECORD
  5
138D
102
{ACAD_REACTORS
330
138C
102
}
330
138C
100
AcDbXrecord
280
     1
102
ACAD_ROUNDTRIP_2012_MLEADER_STYLE
298
     1
  0
XRECORD
  5
139F
102
{ACAD_REACTORS
330
139E
102
}
330
139E
100
AcDbXrecord
280
     1
102
DISPLAYNAME
  1
Metric50
102
FLAGS
 90
        0
  0
CELLSTYLEMAP
  5
135F
102
{ACAD_REACTORS
330
162
102
}
330
162
100
AcDbCellStyleMap
 90
        3
300
CELLSTYLE
  1
TABLEFORMAT_BEGIN
 90
        5
170
     1
 91
        0
 92
    32768
 62
   257
 93
        1
300
CONTENTFORMAT
  1
CONTENTFORMAT_BEGIN
 90
        0
 91
        0
 92
      512
 93
        0
300

 40
0.0
140
1.0
 94
        5
 62
     0
340
11
144
6.0
309
CONTENTFORMAT_END
171
     1
301
MARGIN
  1
CELLMARGIN_BEGIN
 40
1.5
 40
1.5
 40
1.5
 40
1.5
 40
4.5
 40
4.5
309
CELLMARGIN_END
 94
        6
 95
        1
302
GRIDFORMAT
  1
GRIDFORMAT_BEGIN
 90
        0
 91
        1
 62
     0
 92
       -2
340
14
 93
        0
 40
1.125
309
GRIDFORMAT_END
 95
        2
302
GRIDFORMAT
  1
GRIDFORMAT_BEGIN
 90
        0
 91
        1
 62
     0
 92
       -2
340
14
 93
        0
 40
1.125
309
GRIDFORMAT_END
 95
        4
302
GRIDFORMAT
  1
GRIDFORMAT_BEGIN
 90
        0
 91
        1
 62
     0
 92
       -2
340
14
 93
        0
 40
1.125
309
GRIDFORMAT_END
 95
        8
302
GRIDFORMAT
  1
GRIDFORMAT_BEGIN
 90
        0
 91
        1
 62
     0
 92
       -2
340
14
 93
        0
 40
1.125
309
GRIDFORMAT_END
 95
       16
302
GRIDFORMAT
  1
GRIDFORMAT_BEGIN
 90
        0
 91
        1
 62
     0
 92
       -2
340
14
 93
        0
 40
1.125
309
GRIDFORMAT_END
 95
       32
302
GRIDFORMAT
  1
GRIDFORMAT_BEGIN
 90
        0
 91
        1
 62
     0
 92
       -2
340
14
 93
        0
 40
1.125
309
GRIDFORMAT_END
309
TABLEFORMAT_END
  1
CELLSTYLE_BEGIN
 90
        1
 91
        1
300
_TITLE
309
CELLSTYLE_END
300
CELLSTYLE
  1
TABLEFORMAT_BEGIN
 90
        5
170
     1
 91
        0
 92
        0
 62
   257
 93
        1
300
CONTENTFORMAT
  1
CONTENTFORMAT_BEGIN
 90
        0
 91
        0
 92
      512
 93
        0
300

 40
0.0
140
1.0
 94
        5
 62
     0
340
11
144
4.5
309
CONTENTFORMAT_END
171
     1
301
MARGIN
  1
CELLMARGIN_BEGIN
 40
1.5
 40
1.5
 40
1.5
 40
1.5
 40
4.5
 40
4.5
309
CELLMARGIN_END
 94
        6
 95
        1
302
GRIDFORMAT
  1
GRIDFORMAT_BEGIN
 90
        0
 91
        1
 62
     0
 92
       -2
340
14
 93
        0
 40
1.125
309
GRIDFORMAT_END
 95
        2
302
GRIDFORMAT
  1
GRIDFORMAT_BEGIN
 90
        0
 91
        1
 62
     0
 92
       -2
340
14
 93
        0
 40
1.125
309
GRIDFORMAT_END
 95
        4
302
GRIDFORMAT
  1
GRIDFORMAT_BEGIN
 90
        0
 91
        1
 62
     0
 92
       -2
340
14
 93
        0
 40
1.125
309
GRIDFORMAT_END
 95
        8
302
GRIDFORMAT
  1
GRIDFORMAT_BEGIN
 90
        0
 91
        1
 62
     0
 92
       -2
340
14
 93
        0
 40
1.125
309
GRIDFORMAT_END
 95
       16
302
GRIDFORMAT
  1
GRIDFORMAT_BEGIN
 90
        0
 91
        1
 62
     0
 92
       -2
340
14
 93
        0
 40
1.125
309
GRIDFORMAT_END
 95
       32
302
GRIDFORMAT
  1
GRIDFORMAT_BEGIN
 90
        0
 91
        1
 62
     0
 92
       -2
340
14
 93
        0
 40
1.125
309
GRIDFORMAT_END
309
TABLEFORMAT_END
  1
CELLSTYLE_BEGIN
 90
        2
 91
        1
300
_HEADER
309
CELLSTYLE_END
300
CELLSTYLE
  1
TABLEFORMAT_BEGIN
 90
        5
170
     1
 91
        0
 92
        0
 62
   257
 93
        1
300
CONTENTFORMAT
  1
CONTENTFORMAT_BEGIN
 90
        0
 91
        0
 92
      512
 93
        0
300

 40
0.0
140
1.0
 94
        2
 62
     0
340
11
144
4.5
309
CONTENTFORMAT_END
171
     1
301
MARGIN
  1
CELLMARGIN_BEGIN
 40
1.5
 40
1.5
 40
1.5
 40
1.5
 40
4.5
 40
4.5
309
CELLMARGIN_END
 94
        6
 95
        1
302
GRIDFORMAT
  1
GRIDFORMAT_BEGIN
 90
        0
 91
        1
 62
     0
 92
       -2
340
14
 93
        0
 40
1.125
309
GRIDFORMAT_END
 95
        2
302
GRIDFORMAT
  1
GRIDFORMAT_BEGIN
 90
        0
 91
        1
 62
     0
 92
       -2
340
14
 93
        0
 40
1.125
309
GRIDFORMAT_END
 95
        4
302
GRIDFORMAT
  1
GRIDFORMAT_BEGIN
 90
        0
 91
        1
 62
     0
 92
       -2
340
14
 93
        0
 40
1.125
309
GRIDFORMAT_END
 95
        8
302
GRIDFORMAT
  1
GRIDFORMAT_BEGIN
 90
        0
 91
        1
 62
     0
 92
       -2
340
14
 93
        0
 40
1.125
309
GRIDFORMAT_END
 95
       16
302
GRIDFORMAT
  1
GRIDFORMAT_BEGIN
 90
        0
 91
        1
 62
     0
 92
       -2
340
14
 93
        0
 40
1.125
309
GRIDFORMAT_END
 95
       32
302
GRIDFORMAT
  1
GRIDFORMAT_BEGIN
 90
        0
 91
        1
 62
     0
 92
       -2
340
14
 93
        0
 40
1.125
309
GRIDFORMAT_END
309
TABLEFORMAT_END
  1
CELLSTYLE_BEGIN
 90
        3
 91
        2
300
_DATA
309
CELLSTYLE_END
  0
XRECORD
  5
1364
102
{ACAD_REACTORS
330
162
102
}
330
162
100
AcDbXrecord
280
     1
102
ACAD_ROUNDTRIP_PRE2007_TABLESTYLE
 90
      512
 91
        0
  1

 92
      512
 93
        0
  2

 94
      512
 95
        0
  3

  0
XRECORD
  5
1377
102
{ACAD_REACTORS
330
1376
102
}
330
1376
100
AcDbXrecord
280
     1
102
RTVSPost2010Prop28
280
     1
102
RTVSPost2010PropOp28
 70
     1
102
RTVSPost2010Prop29
280
     1
102
RTVSPost2010PropOp29
 70
     1
102
RTVSPost2010Prop30
280
     0
102
RTVSPost2010PropOp30
 70
     1
102
RTVSPost2010Prop31
280
     0
102
RTVSPost2010PropOp31
 70
     1
102
RTVSPost2010Prop32
280
     0
102
RTVSPost2010PropOp32
 70
     1
102
RTVSPost2010Prop33
280
     0
102
RTVSPost2010PropOp33
 70
     1
102
RTVSPost2010Prop34
280
     0
102
RTVSPost2010PropOp34
 70
     1
102
RTVSPost2010Prop35
280
     0
102
RTVSPost2010PropOp35
 70
     1
102
RTVSPost2010Prop36
280
     0
102
RTVSPost2010PropOp36
 70
     1
102
RTVSPost2010Prop37
 90
       50
102
RTVSPost2010PropOp37
 70
     1
102
RTVSPost2010Prop38
140
0.0
102
RTVSPost2010PropOp38
 70
     1
102
RTVSPost2010Prop39
140
1.0
102
RTVSPost2010PropOp39
 70
     1
102
RTVSPost2010Prop40
 90
        0
102
RTVSPost2010PropOp40
 70
     1
102
RTVSPost2010Prop41ColorIndex
 90
       18
102
RTVSPost2010Prop41ColorRGB
 90
        0
102
RTVSPost2010PropOp41
 70
     1
102
RTVSPost2010Prop42
 90
       50
102
RTVSPost2010PropOp42
 70
     1
102
RTVSPost2010Prop43
 90
        3
102
RTVSPost2010PropOp43
 70
     1
102
RTVSPost2010Prop44ColorIndex
 90
        5
102
RTVSPost2010Prop44ColorRGB
 90
      255
102
RTVSPost2010PropOp44
 70
     1
102
RTVSPost2010Prop45
280
     0
102
RTVSPost2010PropOp45
 70
     1
102
RTVSPost2010Prop46
 90
       50
102
RTVSPost2010PropOp46
 70
     1
102
RTVSPost2010Prop47
 90
       50
102
RTVSPost2010PropOp47
 70
     1
102
RTVSPost2010Prop48
 90
       50
102
RTVSPost2010PropOp48
 70
     1
102
RTVSPost2010Prop49
280
     0
102
RTVSPost2010PropOp49
 70
     1
102
RTVSPost2010Prop50
 90
       50
102
RTVSPost2010PropOp50
 70
     1
102
RTVSPost2010Prop51ColorIndex
 90
      256
102
RTVSPost2010Prop51ColorRGB
 90
-16777216
102
RTVSPost2010PropOp51
 70
     0
102
RTVSPost2010Prop52
140
1.0
102
RTVSPost2010PropOp52
 70
     0
102
RTVSPost2010Prop53
 90
        2
102
RTVSPost2010PropOp53
 70
     1
102
RTVSPost2010Prop54
  1
strokes_ogs.tif
102
RTVSPost2010PropOp54
 70
     1
102
RTVSPost2010Prop55
280
     0
102
RTVSPost2010PropOp55
 70
     1
102
RTVSPost2010Prop56
140
1.0
102
RTVSPost2010PropOp56
 70
     1
102
RTVSPost2010Prop57
140
1.0
102
RTVSPost2010PropOp57
 70
     1
102
RTVSPropertyOp0
 70
     1
102
RTVSPropertyOp1
 70
     1
102
RTVSPropertyOp2
 70
     1
102
RTVSPropertyOp3
 70
     1
102
RTVSPropertyOp4
 70
     1
102
RTVSPropertyOp5
 70
     1
102
RTVSPropertyOp6
 70
     1
102
RTVSPropertyOp7
 70
     1
102
RTVSPropertyOp8
 70
     1
102
RTVSPropertyOp9
 70
     1
102
RTVSPropertyOp10
 70
     1
102
RTVSPropertyOp11
 70
     1
102
RTVSPropertyOp12
 70
     1
102
RTVSPropertyOp13
 70
     1
102
RTVSPropertyOp14
 70
     1
102
RTVSPropertyOp15
 70
     1
102
RTVSPropertyOp16
 70
     1
102
RTVSPropertyOp17
 70
     1
102
RTVSPropertyOp18
 70
     1
102
RTVSPropertyOp19
 70
     1
102
RTVSPropertyOp20
 70
     1
102
RTVSPropertyOp21
 70
     1
102
RTVSPropertyOp22
 70
     1
102
RTVSPropertyOp23
 70
     1
102
RTVSPropertyOp24
 70
     1
102
RTVSPropertyOp25
 70
     1
102
RTVSPropertyOp26
 70
     1
102
RTVSPropertyOp27
 70
     1
102
RTVSPropertyOp28
 70
     1
102
RTVSPropertyOp29
 70
     1
102
RTVSPropertyOp30
 70
     1
102
RTVSPropertyOp31
 70
     1
102
RTVSPropertyOp32
 70
     1
102
RTVSPropertyOp33
 70
     1
102
RTVSPropertyOp34
 70
     1
102
RTVSPropertyOp35
 70
     1
102
RTVSPropertyOp36
 70
     1
102
RTVSPropertyOp37
 70
     1
102
RTVSPropertyOp38
 70
     1
102
RTVSPropertyOp39
 70
     1
102
RTVSPropertyOp40
 70
     1
102
RTVSPropertyOp41
 70
     1
102
RTVSPropertyOp42
 70
     1
102
RTVSPropertyOp43
 70
     1
102
RTVSPropertyOp44
 70
     1
102
RTVSPropertyOp45
 70
     1
102
RTVSPropertyOp46
 70
     1
102
RTVSPropertyOp47
 70
     1
102
RTVSPropertyOp48
 70
     1
102
RTVSPropertyOp49
 70
     1
102
RTVSPropertyOp50
 70
     1
102
RTVSPropertyOp51
 70
     0
102
RTVSPropertyOp52
 70
     0
102
RTVSPropertyOp53
 70
     1
102
RTVSPropertyOp54
 70
     1
102
RTVSPropertyOp55
 70
     1
102
RTVSPropertyOp56
 70
     1
102
RTVSPropertyOp57
 70
     1
102
RTVSPropertyOp58
 70
     1
102
RTVSPropertyOp59
 70
     1
102
RTVSPropertyOp60
 70
     1
102
RTVSPropertyOp61
 70
     1
102
RTVSPropertyOp62
 70
     1
  0
XRECORD
  5
1375
102
{ACAD_REACTORS
330
1374
102
}
330
1374
100
AcDbXrecord
280
     1
102
RTVSPost2010Prop28
280
     0
102
RTVSPost2010PropOp28
 70
     1
102
RTVSPost2010Prop29
280
     1
102
RTVSPost2010PropOp29
 70
     1
102
RTVSPost2010Prop30
280
     1
102
RTVSPost2010PropOp30
 70
     1
102
RTVSPost2010Prop31
280
     0
102
RTVSPost2010PropOp31
 70
     1
102
RTVSPost2010Prop32
280
     0
102
RTVSPost2010PropOp32
 70
     1
102
RTVSPost2010Prop33
280
     0
102
RTVSPost2010PropOp33
 70
     1
102
RTVSPost2010Prop34
280
     0
102
RTVSPost2010PropOp34
 70
     1
102
RTVSPost2010Prop35
280
     0
102
RTVSPost2010PropOp35
 70
     1
102
RTVSPost2010Prop36
280
     0
102
RTVSPost2010PropOp36
 70
     1
102
RTVSPost2010Prop37
 90
       50
102
RTVSPost2010PropOp37
 70
     1
102
RTVSPost2010Prop38
140
0.0
102
RTVSPost2010PropOp38
 70
     1
102
RTVSPost2010Prop39
140
1.0
102
RTVSPost2010PropOp39
 70
     1
102
RTVSPost2010Prop40
 90
        0
102
RTVSPost2010PropOp40
 70
     1
102
RTVSPost2010Prop41ColorIndex
 90
       18
102
RTVSPost2010Prop41ColorRGB
 90
        0
102
RTVSPost2010PropOp41
 70
     1
102
RTVSPost2010Prop42
 90
       50
102
RTVSPost2010PropOp42
 70
     1
102
RTVSPost2010Prop43
 90
        3
102
RTVSPost2010PropOp43
 70
     1
102
RTVSPost2010Prop44ColorIndex
 90
        5
102
RTVSPost2010Prop44ColorRGB
 90
      255
102
RTVSPost2010PropOp44
 70
     1
102
RTVSPost2010Prop45
280
     0
102
RTVSPost2010PropOp45
 70
     1
102
RTVSPost2010Prop46
 90
       50
102
RTVSPost2010PropOp46
 70
     1
102
RTVSPost2010Prop47
 90
       50
102
RTVSPost2010PropOp47
 70
     1
102
RTVSPost2010Prop48
 90
       50
102
RTVSPost2010PropOp48
 70
     1
102
RTVSPost2010Prop49
280
     0
102
RTVSPost2010PropOp49
 70
     1
102
RTVSPost2010Prop50
 90
       50
102
RTVSPost2010PropOp50
 70
     1
102
RTVSPost2010Prop51ColorIndex
 90
      256
102
RTVSPost2010Prop51ColorRGB
 90
-16777216
102
RTVSPost2010PropOp51
 70
     0
102
RTVSPost2010Prop52
140
1.0
102
RTVSPost2010PropOp52
 70
     0
102
RTVSPost2010Prop53
 90
        2
102
RTVSPost2010PropOp53
 70
     1
102
RTVSPost2010Prop54
  1
strokes_ogs.tif
102
RTVSPost2010PropOp54
 70
     1
102
RTVSPost2010Prop55
280
     0
102
RTVSPost2010PropOp55
 70
     1
102
RTVSPost2010Prop56
140
1.0
102
RTVSPost2010PropOp56
 70
     1
102
RTVSPost2010Prop57
140
1.0
102
RTVSPost2010PropOp57
 70
     1
102
RTVSPropertyOp0
 70
     1
102
RTVSPropertyOp1
 70
     1
102
RTVSPropertyOp2
 70
     1
102
RTVSPropertyOp3
 70
     1
102
RTVSPropertyOp4
 70
     1
102
RTVSPropertyOp5
 70
     1
102
RTVSPropertyOp6
 70
     1
102
RTVSPropertyOp7
 70
     1
102
RTVSPropertyOp8
 70
     1
102
RTVSPropertyOp9
 70
     1
102
RTVSPropertyOp10
 70
     1
102
RTVSPropertyOp11
 70
     1
102
RTVSPropertyOp12
 70
     1
102
RTVSPropertyOp13
 70
     1
102
RTVSPropertyOp14
 70
     1
102
RTVSPropertyOp15
 70
     1
102
RTVSPropertyOp16
 70
     1
102
RTVSPropertyOp17
 70
     1
102
RTVSPropertyOp18
 70
     1
102
RTVSPropertyOp19
 70
     1
102
RTVSPropertyOp20
 70
     1
102
RTVSPropertyOp21
 70
     1
102
RTVSPropertyOp22
 70
     1
102
RTVSPropertyOp23
 70
     1
102
RTVSPropertyOp24
 70
     1
102
RTVSPropertyOp25
 70
     1
102
RTVSPropertyOp26
 70
     1
102
RTVSPropertyOp27
 70
     1
102
RTVSPropertyOp28
 70
     1
102
RTVSPropertyOp29
 70
     1
102
RTVSPropertyOp30
 70
     1
102
RTVSPropertyOp31
 70
     1
102
RTVSPropertyOp32
 70
     1
102
RTVSPropertyOp33
 70
     1
102
RTVSPropertyOp34
 70
     1
102
RTVSPropertyOp35
 70
     1
102
RTVSPropertyOp36
 70
     1
102
RTVSPropertyOp37
 70
     1
102
RTVSPropertyOp38
 70
     1
102
RTVSPropertyOp39
 70
     1
102
RTVSPropertyOp40
 70
     1
102
RTVSPropertyOp41
 70
     1
102
RTVSPropertyOp42
 70
     1
102
RTVSPropertyOp43
 70
     1
102
RTVSPropertyOp44
 70
     1
102
RTVSPropertyOp45
 70
     1
102
RTVSPropertyOp46
 70
     1
102
RTVSPropertyOp47
 70
     1
102
RTVSPropertyOp48
 70
     1
102
RTVSPropertyOp49
 70
     1
102
RTVSPropertyOp50
 70
     1
102
RTVSPropertyOp51
 70
     0
102
RTVSPropertyOp52
 70
     0
102
RTVSPropertyOp53
 70
     1
102
RTVSPropertyOp54
 70
     1
102
RTVSPropertyOp55
 70
     1
102
RTVSPropertyOp56
 70
     1
102
RTVSPropertyOp57
 70
     1
102
RTVSPropertyOp58
 70
     1
102
RTVSPropertyOp59
 70
     1
102
RTVSPropertyOp60
 70
     1
102
RTVSPropertyOp61
 70
     1
102
RTVSPropertyOp62
 70
     1
  0
XRECORD
  5
1383
102
{ACAD_REACTORS
330
1382
102
}
330
1382
100
AcDbXrecord
280
     1
102
RTVSPost2010Prop28
280
     0
102
RTVSPost2010PropOp28
 70
     1
102
RTVSPost2010Prop29
280
     1
102
RTVSPost2010PropOp29
 70
     1
102
RTVSPost2010Prop30
280
     1
102
RTVSPost2010PropOp30
 70
     1
102
RTVSPost2010Prop31
280
     0
102
RTVSPost2010PropOp31
 70
     1
102
RTVSPost2010Prop32
280
     0
102
RTVSPost2010PropOp32
 70
     1
102
RTVSPost2010Prop33
280
     0
102
RTVSPost2010PropOp33
 70
     1
102
RTVSPost2010Prop34
280
     0
102
RTVSPost2010PropOp34
 70
     1
102
RTVSPost2010Prop35
280
     0
102
RTVSPost2010PropOp35
 70
     1
102
RTVSPost2010Prop36
280
     0
102
RTVSPost2010PropOp36
 70
     1
102
RTVSPost2010Prop37
 90
       50
102
RTVSPost2010PropOp37
 70
     1
102
RTVSPost2010Prop38
140
0.0
102
RTVSPost2010PropOp38
 70
     1
102
RTVSPost2010Prop39
140
1.0
102
RTVSPost2010PropOp39
 70
     1
102
RTVSPost2010Prop40
 90
        0
102
RTVSPost2010PropOp40
 70
     1
102
RTVSPost2010Prop41ColorIndex
 90
       18
102
RTVSPost2010Prop41ColorRGB
 90
        0
102
RTVSPost2010PropOp41
 70
     1
102
RTVSPost2010Prop42
 90
       50
102
RTVSPost2010PropOp42
 70
     1
102
RTVSPost2010Prop43
 90
        3
102
RTVSPost2010PropOp43
 70
     1
102
RTVSPost2010Prop44ColorIndex
 90
        5
102
RTVSPost2010Prop44ColorRGB
 90
      255
102
RTVSPost2010PropOp44
 70
     1
102
RTVSPost2010Prop45
280
     0
102
RTVSPost2010PropOp45
 70
     1
102
RTVSPost2010Prop46
 90
       50
102
RTVSPost2010PropOp46
 70
     1
102
RTVSPost2010Prop47
 90
       50
102
RTVSPost2010PropOp47
 70
     1
102
RTVSPost2010Prop48
 90
       50
102
RTVSPost2010PropOp48
 70
     1
102
RTVSPost2010Prop49
280
     0
102
RTVSPost2010PropOp49
 70
     1
102
RTVSPost2010Prop50
 90
       50
102
RTVSPost2010PropOp50
 70
     1
102
RTVSPost2010Prop51ColorIndex
 90
      256
102
RTVSPost2010Prop51ColorRGB
 90
-16777216
102
RTVSPost2010PropOp51
 70
     0
102
RTVSPost2010Prop52
140
1.0
102
RTVSPost2010PropOp52
 70
     0
102
RTVSPost2010Prop53
 90
        2
102
RTVSPost2010PropOp53
 70
     1
102
RTVSPost2010Prop54
  1
strokes_ogs.tif
102
RTVSPost2010PropOp54
 70
     1
102
RTVSPost2010Prop55
280
     0
102
RTVSPost2010PropOp55
 70
     1
102
RTVSPost2010Prop56
140
1.0
102
RTVSPost2010PropOp56
 70
     1
102
RTVSPost2010Prop57
140
1.0
102
RTVSPost2010PropOp57
 70
     1
102
RTVSPropertyOp0
 70
     1
102
RTVSPropertyOp1
 70
     1
102
RTVSPropertyOp2
 70
     1
102
RTVSPropertyOp3
 70
     1
102
RTVSPropertyOp4
 70
     1
102
RTVSPropertyOp5
 70
     1
102
RTVSPropertyOp6
 70
     1
102
RTVSPropertyOp7
 70
     1
102
RTVSPropertyOp8
 70
     1
102
RTVSPropertyOp9
 70
     1
102
RTVSPropertyOp10
 70
     1
102
RTVSPropertyOp11
 70
     1
102
RTVSPropertyOp12
 70
     1
102
RTVSPropertyOp13
 70
     1
102
RTVSPropertyOp14
 70
     1
102
RTVSPropertyOp15
 70
     1
102
RTVSPropertyOp16
 70
     1
102
RTVSPropertyOp17
 70
     1
102
RTVSPropertyOp18
 70
     1
102
RTVSPropertyOp19
 70
     1
102
RTVSPropertyOp20
 70
     1
102
RTVSPropertyOp21
 70
     1
102
RTVSPropertyOp22
 70
     1
102
RTVSPropertyOp23
 70
     1
102
RTVSPropertyOp24
 70
     1
102
RTVSPropertyOp25
 70
     1
102
RTVSPropertyOp26
 70
     1
102
RTVSPropertyOp27
 70
     1
102
RTVSPropertyOp28
 70
     1
102
RTVSPropertyOp29
 70
     1
102
RTVSPropertyOp30
 70
     1
102
RTVSPropertyOp31
 70
     1
102
RTVSPropertyOp32
 70
     1
102
RTVSPropertyOp33
 70
     1
102
RTVSPropertyOp34
 70
     1
102
RTVSPropertyOp35
 70
     1
102
RTVSPropertyOp36
 70
     1
102
RTVSPropertyOp37
 70
     1
102
RTVSPropertyOp38
 70
     1
102
RTVSPropertyOp39
 70
     1
102
RTVSPropertyOp40
 70
     1
102
RTVSPropertyOp41
 70
     1
102
RTVSPropertyOp42
 70
     1
102
RTVSPropertyOp43
 70
     1
102
RTVSPropertyOp44
 70
     1
102
RTVSPropertyOp45
 70
     1
102
RTVSPropertyOp46
 70
     1
102
RTVSPropertyOp47
 70
     1
102
RTVSPropertyOp48
 70
     1
102
RTVSPropertyOp49
 70
     1
102
RTVSPropertyOp50
 70
     1
102
RTVSPropertyOp51
 70
     0
102
RTVSPropertyOp52
 70
     0
102
RTVSPropertyOp53
 70
     1
102
RTVSPropertyOp54
 70
     1
102
RTVSPropertyOp55
 70
     1
102
RTVSPropertyOp56
 70
     1
102
RTVSPropertyOp57
 70
     1
102
RTVSPropertyOp58
 70
     1
102
RTVSPropertyOp59
 70
     1
102
RTVSPropertyOp60
 70
     1
102
RTVSPropertyOp61
 70
     1
102
RTVSPropertyOp62
 70
     1
  0
XRECORD
  5
138B
102
{ACAD_REACTORS
330
138A
102
}
330
138A
100
AcDbXrecord
280
     1
102
RTVSPost2010Prop28
280
     0
102
RTVSPost2010PropOp28
 70
     1
102
RTVSPost2010Prop29
280
     1
102
RTVSPost2010PropOp29
 70
     1
102
RTVSPost2010Prop30
280
     1
102
RTVSPost2010PropOp30
 70
     1
102
RTVSPost2010Prop31
280
     0
102
RTVSPost2010PropOp31
 70
     1
102
RTVSPost2010Prop32
280
     0
102
RTVSPost2010PropOp32
 70
     1
102
RTVSPost2010Prop33
280
     0
102
RTVSPost2010PropOp33
 70
     1
102
RTVSPost2010Prop34
280
     0
102
RTVSPost2010PropOp34
 70
     1
102
RTVSPost2010Prop35
280
     0
102
RTVSPost2010PropOp35
 70
     1
102
RTVSPost2010Prop36
280
     0
102
RTVSPost2010PropOp36
 70
     1
102
RTVSPost2010Prop37
 90
       50
102
RTVSPost2010PropOp37
 70
     1
102
RTVSPost2010Prop38
140
0.0
102
RTVSPost2010PropOp38
 70
     1
102
RTVSPost2010Prop39
140
1.0
102
RTVSPost2010PropOp39
 70
     1
102
RTVSPost2010Prop40
 90
        0
102
RTVSPost2010PropOp40
 70
     1
102
RTVSPost2010Prop41ColorIndex
 90
       18
102
RTVSPost2010Prop41ColorRGB
 90
        0
102
RTVSPost2010PropOp41
 70
     1
102
RTVSPost2010Prop42
 90
       50
102
RTVSPost2010PropOp42
 70
     1
102
RTVSPost2010Prop43
 90
        3
102
RTVSPost2010PropOp43
 70
     1
102
RTVSPost2010Prop44ColorIndex
 90
        5
102
RTVSPost2010Prop44ColorRGB
 90
      255
102
RTVSPost2010PropOp44
 70
     1
102
RTVSPost2010Prop45
280
     0
102
RTVSPost2010PropOp45
 70
     1
102
RTVSPost2010Prop46
 90
       50
102
RTVSPost2010PropOp46
 70
     1
102
RTVSPost2010Prop47
 90
       50
102
RTVSPost2010PropOp47
 70
     1
102
RTVSPost2010Prop48
 90
       50
102
RTVSPost2010PropOp48
 70
     1
102
RTVSPost2010Prop49
280
     0
102
RTVSPost2010PropOp49
 70
     1
102
RTVSPost2010Prop50
 90
       50
102
RTVSPost2010PropOp50
 70
     1
102
RTVSPost2010Prop51ColorIndex
 90
      256
102
RTVSPost2010Prop51ColorRGB
 90
-16777216
102
RTVSPost2010PropOp51
 70
     0
102
RTVSPost2010Prop52
140
1.0
102
RTVSPost2010PropOp52
 70
     0
102
RTVSPost2010Prop53
 90
        2
102
RTVSPost2010PropOp53
 70
     1
102
RTVSPost2010Prop54
  1
strokes_ogs.tif
102
RTVSPost2010PropOp54
 70
     1
102
RTVSPost2010Prop55
280
     0
102
RTVSPost2010PropOp55
 70
     1
102
RTVSPost2010Prop56
140
1.0
102
RTVSPost2010PropOp56
 70
     1
102
RTVSPost2010Prop57
140
1.0
102
RTVSPost2010PropOp57
 70
     1
102
RTVSPropertyOp0
 70
     1
102
RTVSPropertyOp1
 70
     1
102
RTVSPropertyOp2
 70
     1
102
RTVSPropertyOp3
 70
     1
102
RTVSPropertyOp4
 70
     1
102
RTVSPropertyOp5
 70
     1
102
RTVSPropertyOp6
 70
     1
102
RTVSPropertyOp7
 70
     1
102
RTVSPropertyOp8
 70
     1
102
RTVSPropertyOp9
 70
     1
102
RTVSPropertyOp10
 70
     1
102
RTVSPropertyOp11
 70
     1
102
RTVSPropertyOp12
 70
     1
102
RTVSPropertyOp13
 70
     1
102
RTVSPropertyOp14
 70
     1
102
RTVSPropertyOp15
 70
     1
102
RTVSPropertyOp16
 70
     1
102
RTVSPropertyOp17
 70
     1
102
RTVSPropertyOp18
 70
     1
102
RTVSPropertyOp19
 70
     1
102
RTVSPropertyOp20
 70
     1
102
RTVSPropertyOp21
 70
     1
102
RTVSPropertyOp22
 70
     1
102
RTVSPropertyOp23
 70
     1
102
RTVSPropertyOp24
 70
     1
102
RTVSPropertyOp25
 70
     1
102
RTVSPropertyOp26
 70
     1
102
RTVSPropertyOp27
 70
     1
102
RTVSPropertyOp28
 70
     1
102
RTVSPropertyOp29
 70
     1
102
RTVSPropertyOp30
 70
     1
102
RTVSPropertyOp31
 70
     1
102
RTVSPropertyOp32
 70
     1
102
RTVSPropertyOp33
 70
     1
102
RTVSPropertyOp34
 70
     1
102
RTVSPropertyOp35
 70
     1
102
RTVSPropertyOp36
 70
     1
102
RTVSPropertyOp37
 70
     1
102
RTVSPropertyOp38
 70
     1
102
RTVSPropertyOp39
 70
     1
102
RTVSPropertyOp40
 70
     1
102
RTVSPropertyOp41
 70
     1
102
RTVSPropertyOp42
 70
     1
102
RTVSPropertyOp43
 70
     1
102
RTVSPropertyOp44
 70
     1
102
RTVSPropertyOp45
 70
     1
102
RTVSPropertyOp46
 70
     1
102
RTVSPropertyOp47
 70
     1
102
RTVSPropertyOp48
 70
     1
102
RTVSPropertyOp49
 70
     1
102
RTVSPropertyOp50
 70
     1
102
RTVSPropertyOp51
 70
     0
102
RTVSPropertyOp52
 70
     0
102
RTVSPropertyOp53
 70
     1
102
RTVSPropertyOp54
 70
     1
102
RTVSPropertyOp55
 70
     1
102
RTVSPropertyOp56
 70
     1
102
RTVSPropertyOp57
 70
     1
102
RTVSPropertyOp58
 70
     1
102
RTVSPropertyOp59
 70
     1
102
RTVSPropertyOp60
 70
     1
102
RTVSPropertyOp61
 70
     1
102
RTVSPropertyOp62
 70
     1
  0
XRECORD
  5
137D
102
{ACAD_REACTORS
330
137C
102
}
330
137C
100
AcDbXrecord
280
     1
102
RTVSPost2010Prop28
280
     0
102
RTVSPost2010PropOp28
 70
     1
102
RTVSPost2010Prop29
280
     1
102
RTVSPost2010PropOp29
 70
     1
102
RTVSPost2010Prop30
280
     1
102
RTVSPost2010PropOp30
 70
     1
102
RTVSPost2010Prop31
280
     0
102
RTVSPost2010PropOp31
 70
     1
102
RTVSPost2010Prop32
280
     0
102
RTVSPost2010PropOp32
 70
     1
102
RTVSPost2010Prop33
280
     0
102
RTVSPost2010PropOp33
 70
     1
102
RTVSPost2010Prop34
280
     0
102
RTVSPost2010PropOp34
 70
     1
102
RTVSPost2010Prop35
280
     0
102
RTVSPost2010PropOp35
 70
     1
102
RTVSPost2010Prop36
280
     0
102
RTVSPost2010PropOp36
 70
     1
102
RTVSPost2010Prop37
 90
       50
102
RTVSPost2010PropOp37
 70
     1
102
RTVSPost2010Prop38
140
0.0
102
RTVSPost2010PropOp38
 70
     1
102
RTVSPost2010Prop39
140
1.0
102
RTVSPost2010PropOp39
 70
     1
102
RTVSPost2010Prop40
 90
        0
102
RTVSPost2010PropOp40
 70
     1
102
RTVSPost2010Prop41ColorIndex
 90
       18
102
RTVSPost2010Prop41ColorRGB
 90
        0
102
RTVSPost2010PropOp41
 70
     1
102
RTVSPost2010Prop42
 90
       50
102
RTVSPost2010PropOp42
 70
     1
102
RTVSPost2010Prop43
 90
        3
102
RTVSPost2010PropOp43
 70
     1
102
RTVSPost2010Prop44ColorIndex
 90
        5
102
RTVSPost2010Prop44ColorRGB
 90
      255
102
RTVSPost2010PropOp44
 70
     1
102
RTVSPost2010Prop45
280
     0
102
RTVSPost2010PropOp45
 70
     1
102
RTVSPost2010Prop46
 90
       50
102
RTVSPost2010PropOp46
 70
     1
102
RTVSPost2010Prop47
 90
       50
102
RTVSPost2010PropOp47
 70
     1
102
RTVSPost2010Prop48
 90
       50
102
RTVSPost2010PropOp48
 70
     1
102
RTVSPost2010Prop49
280
     0
102
RTVSPost2010PropOp49
 70
     1
102
RTVSPost2010Prop50
 90
       50
102
RTVSPost2010PropOp50
 70
     1
102
RTVSPost2010Prop51ColorIndex
 90
      256
102
RTVSPost2010Prop51ColorRGB
 90
-16777216
102
RTVSPost2010PropOp51
 70
     0
102
RTVSPost2010Prop52
140
1.0
102
RTVSPost2010PropOp52
 70
     0
102
RTVSPost2010Prop53
 90
        2
102
RTVSPost2010PropOp53
 70
     1
102
RTVSPost2010Prop54
  1
strokes_ogs.tif
102
RTVSPost2010PropOp54
 70
     1
102
RTVSPost2010Prop55
280
     0
102
RTVSPost2010PropOp55
 70
     1
102
RTVSPost2010Prop56
140
1.0
102
RTVSPost2010PropOp56
 70
     1
102
RTVSPost2010Prop57
140
1.0
102
RTVSPost2010PropOp57
 70
     1
102
RTVSPropertyOp0
 70
     1
102
RTVSPropertyOp1
 70
     1
102
RTVSPropertyOp2
 70
     1
102
RTVSPropertyOp3
 70
     1
102
RTVSPropertyOp4
 70
     1
102
RTVSPropertyOp5
 70
     1
102
RTVSPropertyOp6
 70
     1
102
RTVSPropertyOp7
 70
     1
102
RTVSPropertyOp8
 70
     1
102
RTVSPropertyOp9
 70
     1
102
RTVSPropertyOp10
 70
     1
102
RTVSPropertyOp11
 70
     1
102
RTVSPropertyOp12
 70
     1
102
RTVSPropertyOp13
 70
     1
102
RTVSPropertyOp14
 70
     1
102
RTVSPropertyOp15
 70
     1
102
RTVSPropertyOp16
 70
     1
102
RTVSPropertyOp17
 70
     1
102
RTVSPropertyOp18
 70
     1
102
RTVSPropertyOp19
 70
     1
102
RTVSPropertyOp20
 70
     1
102
RTVSPropertyOp21
 70
     1
102
RTVSPropertyOp22
 70
     1
102
RTVSPropertyOp23
 70
     1
102
RTVSPropertyOp24
 70
     1
102
RTVSPropertyOp25
 70
     1
102
RTVSPropertyOp26
 70
     1
102
RTVSPropertyOp27
 70
     1
102
RTVSPropertyOp28
 70
     1
102
RTVSPropertyOp29
 70
     1
102
RTVSPropertyOp30
 70
     1
102
RTVSPropertyOp31
 70
     1
102
RTVSPropertyOp32
 70
     1
102
RTVSPropertyOp33
 70
     1
102
RTVSPropertyOp34
 70
     1
102
RTVSPropertyOp35
 70
     1
102
RTVSPropertyOp36
 70
     1
102
RTVSPropertyOp37
 70
     1
102
RTVSPropertyOp38
 70
     1
102
RTVSPropertyOp39
 70
     1
102
RTVSPropertyOp40
 70
     1
102
RTVSPropertyOp41
 70
     1
102
RTVSPropertyOp42
 70
     1
102
RTVSPropertyOp43
 70
     1
102
RTVSPropertyOp44
 70
     1
102
RTVSPropertyOp45
 70
     1
102
RTVSPropertyOp46
 70
     1
102
RTVSPropertyOp47
 70
     1
102
RTVSPropertyOp48
 70
     1
102
RTVSPropertyOp49
 70
     1
102
RTVSPropertyOp50
 70
     1
102
RTVSPropertyOp51
 70
     0
102
RTVSPropertyOp52
 70
     0
102
RTVSPropertyOp53
 70
     1
102
RTVSPropertyOp54
 70
     1
102
RTVSPropertyOp55
 70
     1
102
RTVSPropertyOp56
 70
     1
102
RTVSPropertyOp57
 70
     1
102
RTVSPropertyOp58
 70
     1
102
RTVSPropertyOp59
 70
     1
102
RTVSPropertyOp60
 70
     1
102
RTVSPropertyOp61
 70
     1
102
RTVSPropertyOp62
 70
     1
  0
XRECORD
  5
1381
102
{ACAD_REACTORS
330
1380
102
}
330
1380
100
AcDbXrecord
280
     1
102
RTVSPost2010Prop28
280
     0
102
RTVSPost2010PropOp28
 70
     1
102
RTVSPost2010Prop29
280
     1
102
RTVSPost2010PropOp29
 70
     1
102
RTVSPost2010Prop30
280
     1
102
RTVSPost2010PropOp30
 70
     1
102
RTVSPost2010Prop31
280
     0
102
RTVSPost2010PropOp31
 70
     1
102
RTVSPost2010Prop32
280
     0
102
RTVSPost2010PropOp32
 70
     1
102
RTVSPost2010Prop33
280
     0
102
RTVSPost2010PropOp33
 70
     1
102
RTVSPost2010Prop34
280
     0
102
RTVSPost2010PropOp34
 70
     1
102
RTVSPost2010Prop35
280
     0
102
RTVSPost2010PropOp35
 70
     1
102
RTVSPost2010Prop36
280
     0
102
RTVSPost2010PropOp36
 70
     1
102
RTVSPost2010Prop37
 90
       50
102
RTVSPost2010PropOp37
 70
     1
102
RTVSPost2010Prop38
140
0.0
102
RTVSPost2010PropOp38
 70
     1
102
RTVSPost2010Prop39
140
1.0
102
RTVSPost2010PropOp39
 70
     1
102
RTVSPost2010Prop40
 90
        0
102
RTVSPost2010PropOp40
 70
     1
102
RTVSPost2010Prop41ColorIndex
 90
       18
102
RTVSPost2010Prop41ColorRGB
 90
        0
102
RTVSPost2010PropOp41
 70
     1
102
RTVSPost2010Prop42
 90
       50
102
RTVSPost2010PropOp42
 70
     1
102
RTVSPost2010Prop43
 90
        3
102
RTVSPost2010PropOp43
 70
     1
102
RTVSPost2010Prop44ColorIndex
 90
        5
102
RTVSPost2010Prop44ColorRGB
 90
      255
102
RTVSPost2010PropOp44
 70
     1
102
RTVSPost2010Prop45
280
     0
102
RTVSPost2010PropOp45
 70
     1
102
RTVSPost2010Prop46
 90
       50
102
RTVSPost2010PropOp46
 70
     1
102
RTVSPost2010Prop47
 90
       50
102
RTVSPost2010PropOp47
 70
     1
102
RTVSPost2010Prop48
 90
       50
102
RTVSPost2010PropOp48
 70
     1
102
RTVSPost2010Prop49
280
     0
102
RTVSPost2010PropOp49
 70
     1
102
RTVSPost2010Prop50
 90
       50
102
RTVSPost2010PropOp50
 70
     1
102
RTVSPost2010Prop51ColorIndex
 90
      256
102
RTVSPost2010Prop51ColorRGB
 90
-16777216
102
RTVSPost2010PropOp51
 70
     0
102
RTVSPost2010Prop52
140
1.0
102
RTVSPost2010PropOp52
 70
     0
102
RTVSPost2010Prop53
 90
        2
102
RTVSPost2010PropOp53
 70
     1
102
RTVSPost2010Prop54
  1
strokes_ogs.tif
102
RTVSPost2010PropOp54
 70
     1
102
RTVSPost2010Prop55
280
     0
102
RTVSPost2010PropOp55
 70
     1
102
RTVSPost2010Prop56
140
1.0
102
RTVSPost2010PropOp56
 70
     1
102
RTVSPost2010Prop57
140
1.0
102
RTVSPost2010PropOp57
 70
     1
102
RTVSPropertyOp0
 70
     1
102
RTVSPropertyOp1
 70
     1
102
RTVSPropertyOp2
 70
     1
102
RTVSPropertyOp3
 70
     1
102
RTVSPropertyOp4
 70
     1
102
RTVSPropertyOp5
 70
     1
102
RTVSPropertyOp6
 70
     1
102
RTVSPropertyOp7
 70
     1
102
RTVSPropertyOp8
 70
     1
102
RTVSPropertyOp9
 70
     1
102
RTVSPropertyOp10
 70
     1
102
RTVSPropertyOp11
 70
     1
102
RTVSPropertyOp12
 70
     1
102
RTVSPropertyOp13
 70
     1
102
RTVSPropertyOp14
 70
     1
102
RTVSPropertyOp15
 70
     1
102
RTVSPropertyOp16
 70
     1
102
RTVSPropertyOp17
 70
     1
102
RTVSPropertyOp18
 70
     1
102
RTVSPropertyOp19
 70
     1
102
RTVSPropertyOp20
 70
     1
102
RTVSPropertyOp21
 70
     1
102
RTVSPropertyOp22
 70
     1
102
RTVSPropertyOp23
 70
     1
102
RTVSPropertyOp24
 70
     1
102
RTVSPropertyOp25
 70
     1
102
RTVSPropertyOp26
 70
     1
102
RTVSPropertyOp27
 70
     1
102
RTVSPropertyOp28
 70
     1
102
RTVSPropertyOp29
 70
     1
102
RTVSPropertyOp30
 70
     1
102
RTVSPropertyOp31
 70
     1
102
RTVSPropertyOp32
 70
     1
102
RTVSPropertyOp33
 70
     1
102
RTVSPropertyOp34
 70
     1
102
RTVSPropertyOp35
 70
     1
102
RTVSPropertyOp36
 70
     1
102
RTVSPropertyOp37
 70
     1
102
RTVSPropertyOp38
 70
     1
102
RTVSPropertyOp39
 70
     1
102
RTVSPropertyOp40
 70
     1
102
RTVSPropertyOp41
 70
     1
102
RTVSPropertyOp42
 70
     1
102
RTVSPropertyOp43
 70
     1
102
RTVSPropertyOp44
 70
     1
102
RTVSPropertyOp45
 70
     1
102
RTVSPropertyOp46
 70
     1
102
RTVSPropertyOp47
 70
     1
102
RTVSPropertyOp48
 70
     1
102
RTVSPropertyOp49
 70
     1
102
RTVSPropertyOp50
 70
     1
102
RTVSPropertyOp51
 70
     0
102
RTVSPropertyOp52
 70
     0
102
RTVSPropertyOp53
 70
     1
102
RTVSPropertyOp54
 70
     1
102
RTVSPropertyOp55
 70
     1
102
RTVSPropertyOp56
 70
     1
102
RTVSPropertyOp57
 70
     1
102
RTVSPropertyOp58
 70
     1
102
RTVSPropertyOp59
 70
     1
102
RTVSPropertyOp60
 70
     1
102
RTVSPropertyOp61
 70
     1
102
RTVSPropertyOp62
 70
     1
  0
XRECORD
  5
1393
102
{ACAD_REACTORS
330
1392
102
}
330
1392
100
AcDbXrecord
280
     1
102
RTVSPost2010Prop28
280
     0
102
RTVSPost2010PropOp28
 70
     1
102
RTVSPost2010Prop29
280
     1
102
RTVSPost2010PropOp29
 70
     1
102
RTVSPost2010Prop30
280
     1
102
RTVSPost2010PropOp30
 70
     1
102
RTVSPost2010Prop31
280
     0
102
RTVSPost2010PropOp31
 70
     1
102
RTVSPost2010Prop32
280
     0
102
RTVSPost2010PropOp32
 70
     1
102
RTVSPost2010Prop33
280
     0
102
RTVSPost2010PropOp33
 70
     1
102
RTVSPost2010Prop34
280
     0
102
RTVSPost2010PropOp34
 70
     1
102
RTVSPost2010Prop35
280
     0
102
RTVSPost2010PropOp35
 70
     1
102
RTVSPost2010Prop36
280
     0
102
RTVSPost2010PropOp36
 70
     1
102
RTVSPost2010Prop37
 90
       50
102
RTVSPost2010PropOp37
 70
     1
102
RTVSPost2010Prop38
140
0.0
102
RTVSPost2010PropOp38
 70
     1
102
RTVSPost2010Prop39
140
1.0
102
RTVSPost2010PropOp39
 70
     1
102
RTVSPost2010Prop40
 90
        0
102
RTVSPost2010PropOp40
 70
     1
102
RTVSPost2010Prop41ColorIndex
 90
       18
102
RTVSPost2010Prop41ColorRGB
 90
        0
102
RTVSPost2010PropOp41
 70
     1
102
RTVSPost2010Prop42
 90
       50
102
RTVSPost2010PropOp42
 70
     1
102
RTVSPost2010Prop43
 90
        3
102
RTVSPost2010PropOp43
 70
     1
102
RTVSPost2010Prop44ColorIndex
 90
        5
102
RTVSPost2010Prop44ColorRGB
 90
      255
102
RTVSPost2010PropOp44
 70
     1
102
RTVSPost2010Prop45
280
     0
102
RTVSPost2010PropOp45
 70
     1
102
RTVSPost2010Prop46
 90
       50
102
RTVSPost2010PropOp46
 70
     1
102
RTVSPost2010Prop47
 90
       50
102
RTVSPost2010PropOp47
 70
     1
102
RTVSPost2010Prop48
 90
       50
102
RTVSPost2010PropOp48
 70
     1
102
RTVSPost2010Prop49
280
     0
102
RTVSPost2010PropOp49
 70
     1
102
RTVSPost2010Prop50
 90
       50
102
RTVSPost2010PropOp50
 70
     1
102
RTVSPost2010Prop51ColorIndex
 90
      256
102
RTVSPost2010Prop51ColorRGB
 90
-16777216
102
RTVSPost2010PropOp51
 70
     0
102
RTVSPost2010Prop52
140
1.0
102
RTVSPost2010PropOp52
 70
     0
102
RTVSPost2010Prop53
 90
        2
102
RTVSPost2010PropOp53
 70
     1
102
RTVSPost2010Prop54
  1
strokes_ogs.tif
102
RTVSPost2010PropOp54
 70
     1
102
RTVSPost2010Prop55
280
     0
102
RTVSPost2010PropOp55
 70
     1
102
RTVSPost2010Prop56
140
1.0
102
RTVSPost2010PropOp56
 70
     1
102
RTVSPost2010Prop57
140
1.0
102
RTVSPost2010PropOp57
 70
     1
102
RTVSPropertyOp0
 70
     0
102
RTVSPropertyOp1
 70
     0
102
RTVSPropertyOp2
 70
     0
102
RTVSPropertyOp3
 70
     0
102
RTVSPropertyOp4
 70
     0
102
RTVSPropertyOp5
 70
     0
102
RTVSPropertyOp6
 70
     0
102
RTVSPropertyOp7
 70
     0
102
RTVSPropertyOp8
 70
     0
102
RTVSPropertyOp9
 70
     0
102
RTVSPropertyOp10
 70
     0
102
RTVSPropertyOp11
 70
     0
102
RTVSPropertyOp12
 70
     0
102
RTVSPropertyOp13
 70
     0
102
RTVSPropertyOp14
 70
     2
102
RTVSPropertyOp15
 70
     0
102
RTVSPropertyOp16
 70
     0
102
RTVSPropertyOp17
 70
     0
102
RTVSPropertyOp18
 70
     0
102
RTVSPropertyOp19
 70
     0
102
RTVSPropertyOp20
 70
     0
102
RTVSPropertyOp21
 70
     0
102
RTVSPropertyOp22
 70
     0
102
RTVSPropertyOp23
 70
     0
102
RTVSPropertyOp24
 70
     0
102
RTVSPropertyOp25
 70
     0
102
RTVSPropertyOp26
 70
     0
102
RTVSPropertyOp27
 70
     0
102
RTVSPropertyOp28
 70
     1
102
RTVSPropertyOp29
 70
     1
102
RTVSPropertyOp30
 70
     1
102
RTVSPropertyOp31
 70
     1
102
RTVSPropertyOp32
 70
     1
102
RTVSPropertyOp33
 70
     1
102
RTVSPropertyOp34
 70
     1
102
RTVSPropertyOp35
 70
     1
102
RTVSPropertyOp36
 70
     1
102
RTVSPropertyOp37
 70
     1
102
RTVSPropertyOp38
 70
     1
102
RTVSPropertyOp39
 70
     1
102
RTVSPropertyOp40
 70
     1
102
RTVSPropertyOp41
 70
     1
102
RTVSPropertyOp42
 70
     1
102
RTVSPropertyOp43
 70
     1
102
RTVSPropertyOp44
 70
     1
102
RTVSPropertyOp45
 70
     1
102
RTVSPropertyOp46
 70
     1
102
RTVSPropertyOp47
 70
     1
102
RTVSPropertyOp48
 70
     1
102
RTVSPropertyOp49
 70
     1
102
RTVSPropertyOp50
 70
     1
102
RTVSPropertyOp51
 70
     0
102
RTVSPropertyOp52
 70
     0
102
RTVSPropertyOp53
 70
     1
102
RTVSPropertyOp54
 70
     1
102
RTVSPropertyOp55
 70
     1
102
RTVSPropertyOp56
 70
     1
102
RTVSPropertyOp57
 70
     1
102
RTVSPropertyOp58
 70
     1
102
RTVSPropertyOp59
 70
     1
102
RTVSPropertyOp60
 70
     1
102
RTVSPropertyOp61
 70
     1
102
RTVSPropertyOp62
 70
     1
  0
XRECORD
  5
1389
102
{ACAD_REACTORS
330
1388
102
}
330
1388
100
AcDbXrecord
280
     1
102
RTVSPost2010Prop28
280
     0
102
RTVSPost2010PropOp28
 70
     1
102
RTVSPost2010Prop29
280
     1
102
RTVSPost2010PropOp29
 70
     1
102
RTVSPost2010Prop30
280
     1
102
RTVSPost2010PropOp30
 70
     1
102
RTVSPost2010Prop31
280
     0
102
RTVSPost2010PropOp31
 70
     1
102
RTVSPost2010Prop32
280
     0
102
RTVSPost2010PropOp32
 70
     1
102
RTVSPost2010Prop33
280
     0
102
RTVSPost2010PropOp33
 70
     1
102
RTVSPost2010Prop34
280
     0
102
RTVSPost2010PropOp34
 70
     1
102
RTVSPost2010Prop35
280
     0
102
RTVSPost2010PropOp35
 70
     1
102
RTVSPost2010Prop36
280
     0
102
RTVSPost2010PropOp36
 70
     1
102
RTVSPost2010Prop37
 90
       50
102
RTVSPost2010PropOp37
 70
     1
102
RTVSPost2010Prop38
140
0.0
102
RTVSPost2010PropOp38
 70
     1
102
RTVSPost2010Prop39
140
1.0
102
RTVSPost2010PropOp39
 70
     1
102
RTVSPost2010Prop40
 90
        0
102
RTVSPost2010PropOp40
 70
     1
102
RTVSPost2010Prop41ColorIndex
 90
       18
102
RTVSPost2010Prop41ColorRGB
 90
        0
102
RTVSPost2010PropOp41
 70
     1
102
RTVSPost2010Prop42
 90
       50
102
RTVSPost2010PropOp42
 70
     1
102
RTVSPost2010Prop43
 90
        3
102
RTVSPost2010PropOp43
 70
     1
102
RTVSPost2010Prop44ColorIndex
 90
        5
102
RTVSPost2010Prop44ColorRGB
 90
      255
102
RTVSPost2010PropOp44
 70
     1
102
RTVSPost2010Prop45
280
     0
102
RTVSPost2010PropOp45
 70
     1
102
RTVSPost2010Prop46
 90
       50
102
RTVSPost2010PropOp46
 70
     1
102
RTVSPost2010Prop47
 90
       50
102
RTVSPost2010PropOp47
 70
     1
102
RTVSPost2010Prop48
 90
       50
102
RTVSPost2010PropOp48
 70
     1
102
RTVSPost2010Prop49
280
     0
102
RTVSPost2010PropOp49
 70
     1
102
RTVSPost2010Prop50
 90
       50
102
RTVSPost2010PropOp50
 70
     1
102
RTVSPost2010Prop51ColorIndex
 90
      256
102
RTVSPost2010Prop51ColorRGB
 90
-16777216
102
RTVSPost2010PropOp51
 70
     0
102
RTVSPost2010Prop52
140
1.0
102
RTVSPost2010PropOp52
 70
     0
102
RTVSPost2010Prop53
 90
        2
102
RTVSPost2010PropOp53
 70
     1
102
RTVSPost2010Prop54
  1
strokes_ogs.tif
102
RTVSPost2010PropOp54
 70
     1
102
RTVSPost2010Prop55
280
     0
102
RTVSPost2010PropOp55
 70
     1
102
RTVSPost2010Prop56
140
1.0
102
RTVSPost2010PropOp56
 70
     1
102
RTVSPost2010Prop57
140
1.0
102
RTVSPost2010PropOp57
 70
     1
102
RTVSPropertyOp0
 70
     1
102
RTVSPropertyOp1
 70
     1
102
RTVSPropertyOp2
 70
     1
102
RTVSPropertyOp3
 70
     1
102
RTVSPropertyOp4
 70
     1
102
RTVSPropertyOp5
 70
     1
102
RTVSPropertyOp6
 70
     1
102
RTVSPropertyOp7
 70
     1
102
RTVSPropertyOp8
 70
     1
102
RTVSPropertyOp9
 70
     1
102
RTVSPropertyOp10
 70
     1
102
RTVSPropertyOp11
 70
     1
102
RTVSPropertyOp12
 70
     1
102
RTVSPropertyOp13
 70
     1
102
RTVSPropertyOp14
 70
     1
102
RTVSPropertyOp15
 70
     1
102
RTVSPropertyOp16
 70
     1
102
RTVSPropertyOp17
 70
     1
102
RTVSPropertyOp18
 70
     1
102
RTVSPropertyOp19
 70
     1
102
RTVSPropertyOp20
 70
     1
102
RTVSPropertyOp21
 70
     1
102
RTVSPropertyOp22
 70
     1
102
RTVSPropertyOp23
 70
     1
102
RTVSPropertyOp24
 70
     1
102
RTVSPropertyOp25
 70
     1
102
RTVSPropertyOp26
 70
     1
102
RTVSPropertyOp27
 70
     1
102
RTVSPropertyOp28
 70
     1
102
RTVSPropertyOp29
 70
     1
102
RTVSPropertyOp30
 70
     1
102
RTVSPropertyOp31
 70
     1
102
RTVSPropertyOp32
 70
     1
102
RTVSPropertyOp33
 70
     1
102
RTVSPropertyOp34
 70
     1
102
RTVSPropertyOp35
 70
     1
102
RTVSPropertyOp36
 70
     1
102
RTVSPropertyOp37
 70
     1
102
RTVSPropertyOp38
 70
     1
102
RTVSPropertyOp39
 70
     1
102
RTVSPropertyOp40
 70
     1
102
RTVSPropertyOp41
 70
     1
102
RTVSPropertyOp42
 70
     1
102
RTVSPropertyOp43
 70
     1
102
RTVSPropertyOp44
 70
     1
102
RTVSPropertyOp45
 70
     1
102
RTVSPropertyOp46
 70
     1
102
RTVSPropertyOp47
 70
     1
102
RTVSPropertyOp48
 70
     1
102
RTVSPropertyOp49
 70
     1
102
RTVSPropertyOp50
 70
     1
102
RTVSPropertyOp51
 70
     0
102
RTVSPropertyOp52
 70
     0
102
RTVSPropertyOp53
 70
     1
102
RTVSPropertyOp54
 70
     1
102
RTVSPropertyOp55
 70
     1
102
RTVSPropertyOp56
 70
     1
102
RTVSPropertyOp57
 70
     1
102
RTVSPropertyOp58
 70
     1
102
RTVSPropertyOp59
 70
     1
102
RTVSPropertyOp60
 70
     1
102
RTVSPropertyOp61
 70
     1
102
RTVSPropertyOp62
 70
     1
  0
XRECORD
  5
136D
102
{ACAD_REACTORS
330
136C
102
}
330
136C
100
AcDbXrecord
280
     1
102
RTVSPost2010Prop28
280
     0
102
RTVSPost2010PropOp28
 70
     1
102
RTVSPost2010Prop29
280
     1
102
RTVSPost2010PropOp29
 70
     1
102
RTVSPost2010Prop30
280
     1
102
RTVSPost2010PropOp30
 70
     1
102
RTVSPost2010Prop31
280
     0
102
RTVSPost2010PropOp31
 70
     1
102
RTVSPost2010Prop32
280
     0
102
RTVSPost2010PropOp32
 70
     1
102
RTVSPost2010Prop33
280
     0
102
RTVSPost2010PropOp33
 70
     1
102
RTVSPost2010Prop34
280
     0
102
RTVSPost2010PropOp34
 70
     1
102
RTVSPost2010Prop35
280
     0
102
RTVSPost2010PropOp35
 70
     1
102
RTVSPost2010Prop36
280
     0
102
RTVSPost2010PropOp36
 70
     1
102
RTVSPost2010Prop37
 90
       50
102
RTVSPost2010PropOp37
 70
     1
102
RTVSPost2010Prop38
140
0.0
102
RTVSPost2010PropOp38
 70
     1
102
RTVSPost2010Prop39
140
1.0
102
RTVSPost2010PropOp39
 70
     1
102
RTVSPost2010Prop40
 90
        0
102
RTVSPost2010PropOp40
 70
     1
102
RTVSPost2010Prop41ColorIndex
 90
       18
102
RTVSPost2010Prop41ColorRGB
 90
        0
102
RTVSPost2010PropOp41
 70
     1
102
RTVSPost2010Prop42
 90
       50
102
RTVSPost2010PropOp42
 70
     1
102
RTVSPost2010Prop43
 90
        3
102
RTVSPost2010PropOp43
 70
     1
102
RTVSPost2010Prop44ColorIndex
 90
        5
102
RTVSPost2010Prop44ColorRGB
 90
      255
102
RTVSPost2010PropOp44
 70
     1
102
RTVSPost2010Prop45
280
     0
102
RTVSPost2010PropOp45
 70
     1
102
RTVSPost2010Prop46
 90
       50
102
RTVSPost2010PropOp46
 70
     1
102
RTVSPost2010Prop47
 90
       50
102
RTVSPost2010PropOp47
 70
     1
102
RTVSPost2010Prop48
 90
       50
102
RTVSPost2010PropOp48
 70
     1
102
RTVSPost2010Prop49
280
     0
102
RTVSPost2010PropOp49
 70
     1
102
RTVSPost2010Prop50
 90
       50
102
RTVSPost2010PropOp50
 70
     1
102
RTVSPost2010Prop51ColorIndex
 90
      256
102
RTVSPost2010Prop51ColorRGB
 90
-16777216
102
RTVSPost2010PropOp51
 70
     0
102
RTVSPost2010Prop52
140
1.0
102
RTVSPost2010PropOp52
 70
     0
102
RTVSPost2010Prop53
 90
        2
102
RTVSPost2010PropOp53
 70
     1
102
RTVSPost2010Prop54
  1
strokes_ogs.tif
102
RTVSPost2010PropOp54
 70
     1
102
RTVSPost2010Prop55
280
     0
102
RTVSPost2010PropOp55
 70
     1
102
RTVSPost2010Prop56
140
1.0
102
RTVSPost2010PropOp56
 70
     1
102
RTVSPost2010Prop57
140
1.0
102
RTVSPost2010PropOp57
 70
     1
102
RTVSPropertyOp0
 70
     1
102
RTVSPropertyOp1
 70
     1
102
RTVSPropertyOp2
 70
     1
102
RTVSPropertyOp3
 70
     1
102
RTVSPropertyOp4
 70
     1
102
RTVSPropertyOp5
 70
     1
102
RTVSPropertyOp6
 70
     1
102
RTVSPropertyOp7
 70
     1
102
RTVSPropertyOp8
 70
     1
102
RTVSPropertyOp9
 70
     1
102
RTVSPropertyOp10
 70
     1
102
RTVSPropertyOp11
 70
     1
102
RTVSPropertyOp12
 70
     1
102
RTVSPropertyOp13
 70
     1
102
RTVSPropertyOp14
 70
     1
102
RTVSPropertyOp15
 70
     1
102
RTVSPropertyOp16
 70
     1
102
RTVSPropertyOp17
 70
     1
102
RTVSPropertyOp18
 70
     1
102
RTVSPropertyOp19
 70
     1
102
RTVSPropertyOp20
 70
     1
102
RTVSPropertyOp21
 70
     1
102
RTVSPropertyOp22
 70
     1
102
RTVSPropertyOp23
 70
     1
102
RTVSPropertyOp24
 70
     1
102
RTVSPropertyOp25
 70
     1
102
RTVSPropertyOp26
 70
     1
102
RTVSPropertyOp27
 70
     1
102
RTVSPropertyOp28
 70
     1
102
RTVSPropertyOp29
 70
     1
102
RTVSPropertyOp30
 70
     1
102
RTVSPropertyOp31
 70
     1
102
RTVSPropertyOp32
 70
     1
102
RTVSPropertyOp33
 70
     1
102
RTVSPropertyOp34
 70
     1
102
RTVSPropertyOp35
 70
     1
102
RTVSPropertyOp36
 70
     1
102
RTVSPropertyOp37
 70
     1
102
RTVSPropertyOp38
 70
     1
102
RTVSPropertyOp39
 70
     1
102
RTVSPropertyOp40
 70
     1
102
RTVSPropertyOp41
 70
     1
102
RTVSPropertyOp42
 70
     1
102
RTVSPropertyOp43
 70
     1
102
RTVSPropertyOp44
 70
     1
102
RTVSPropertyOp45
 70
     1
102
RTVSPropertyOp46
 70
     1
102
RTVSPropertyOp47
 70
     1
102
RTVSPropertyOp48
 70
     1
102
RTVSPropertyOp49
 70
     1
102
RTVSPropertyOp50
 70
     1
102
RTVSPropertyOp51
 70
     0
102
RTVSPropertyOp52
 70
     0
102
RTVSPropertyOp53
 70
     1
102
RTVSPropertyOp54
 70
     1
102
RTVSPropertyOp55
 70
     1
102
RTVSPropertyOp56
 70
     1
102
RTVSPropertyOp57
 70
     1
102
RTVSPropertyOp58
 70
     1
102
RTVSPropertyOp59
 70
     1
102
RTVSPropertyOp60
 70
     1
102
RTVSPropertyOp61
 70
     1
102
RTVSPropertyOp62
 70
     1
  0
XRECORD
  5
136F
102
{ACAD_REACTORS
330
136E
102
}
330
136E
100
AcDbXrecord
280
     1
102
RTVSPost2010Prop28
280
     0
102
RTVSPost2010PropOp28
 70
     1
102
RTVSPost2010Prop29
280
     1
102
RTVSPost2010PropOp29
 70
     1
102
RTVSPost2010Prop30
280
     1
102
RTVSPost2010PropOp30
 70
     1
102
RTVSPost2010Prop31
280
     0
102
RTVSPost2010PropOp31
 70
     1
102
RTVSPost2010Prop32
280
     0
102
RTVSPost2010PropOp32
 70
     1
102
RTVSPost2010Prop33
280
     0
102
RTVSPost2010PropOp33
 70
     1
102
RTVSPost2010Prop34
280
     0
102
RTVSPost2010PropOp34
 70
     1
102
RTVSPost2010Prop35
280
     0
102
RTVSPost2010PropOp35
 70
     1
102
RTVSPost2010Prop36
280
     0
102
RTVSPost2010PropOp36
 70
     1
102
RTVSPost2010Prop37
 90
       50
102
RTVSPost2010PropOp37
 70
     1
102
RTVSPost2010Prop38
140
0.0
102
RTVSPost2010PropOp38
 70
     1
102
RTVSPost2010Prop39
140
1.0
102
RTVSPost2010PropOp39
 70
     1
102
RTVSPost2010Prop40
 90
        0
102
RTVSPost2010PropOp40
 70
     1
102
RTVSPost2010Prop41ColorIndex
 90
       18
102
RTVSPost2010Prop41ColorRGB
 90
        0
102
RTVSPost2010PropOp41
 70
     1
102
RTVSPost2010Prop42
 90
       50
102
RTVSPost2010PropOp42
 70
     1
102
RTVSPost2010Prop43
 90
        3
102
RTVSPost2010PropOp43
 70
     1
102
RTVSPost2010Prop44ColorIndex
 90
        5
102
RTVSPost2010Prop44ColorRGB
 90
      255
102
RTVSPost2010PropOp44
 70
     1
102
RTVSPost2010Prop45
280
     0
102
RTVSPost2010PropOp45
 70
     1
102
RTVSPost2010Prop46
 90
       50
102
RTVSPost2010PropOp46
 70
     1
102
RTVSPost2010Prop47
 90
       50
102
RTVSPost2010PropOp47
 70
     1
102
RTVSPost2010Prop48
 90
       50
102
RTVSPost2010PropOp48
 70
     1
102
RTVSPost2010Prop49
280
     0
102
RTVSPost2010PropOp49
 70
     1
102
RTVSPost2010Prop50
 90
       50
102
RTVSPost2010PropOp50
 70
     1
102
RTVSPost2010Prop51ColorIndex
 90
      256
102
RTVSPost2010Prop51ColorRGB
 90
-16777216
102
RTVSPost2010PropOp51
 70
     0
102
RTVSPost2010Prop52
140
1.0
102
RTVSPost2010PropOp52
 70
     0
102
RTVSPost2010Prop53
 90
        2
102
RTVSPost2010PropOp53
 70
     1
102
RTVSPost2010Prop54
  1
strokes_ogs.tif
102
RTVSPost2010PropOp54
 70
     1
102
RTVSPost2010Prop55
280
     0
102
RTVSPost2010PropOp55
 70
     1
102
RTVSPost2010Prop56
140
1.0
102
RTVSPost2010PropOp56
 70
     1
102
RTVSPost2010Prop57
140
1.0
102
RTVSPost2010PropOp57
 70
     1
102
RTVSPropertyOp0
 70
     1
102
RTVSPropertyOp1
 70
     1
102
RTVSPropertyOp2
 70
     1
102
RTVSPropertyOp3
 70
     1
102
RTVSPropertyOp4
 70
     1
102
RTVSPropertyOp5
 70
     1
102
RTVSPropertyOp6
 70
     1
102
RTVSPropertyOp7
 70
     1
102
RTVSPropertyOp8
 70
     1
102
RTVSPropertyOp9
 70
     1
102
RTVSPropertyOp10
 70
     1
102
RTVSPropertyOp11
 70
     1
102
RTVSPropertyOp12
 70
     1
102
RTVSPropertyOp13
 70
     1
102
RTVSPropertyOp14
 70
     1
102
RTVSPropertyOp15
 70
     1
102
RTVSPropertyOp16
 70
     1
102
RTVSPropertyOp17
 70
     1
102
RTVSPropertyOp18
 70
     1
102
RTVSPropertyOp19
 70
     1
102
RTVSPropertyOp20
 70
     1
102
RTVSPropertyOp21
 70
     1
102
RTVSPropertyOp22
 70
     1
102
RTVSPropertyOp23
 70
     1
102
RTVSPropertyOp24
 70
     1
102
RTVSPropertyOp25
 70
     1
102
RTVSPropertyOp26
 70
     1
102
RTVSPropertyOp27
 70
     1
102
RTVSPropertyOp28
 70
     1
102
RTVSPropertyOp29
 70
     1
102
RTVSPropertyOp30
 70
     1
102
RTVSPropertyOp31
 70
     1
102
RTVSPropertyOp32
 70
     1
102
RTVSPropertyOp33
 70
     1
102
RTVSPropertyOp34
 70
     1
102
RTVSPropertyOp35
 70
     1
102
RTVSPropertyOp36
 70
     1
102
RTVSPropertyOp37
 70
     1
102
RTVSPropertyOp38
 70
     1
102
RTVSPropertyOp39
 70
     1
102
RTVSPropertyOp40
 70
     1
102
RTVSPropertyOp41
 70
     1
102
RTVSPropertyOp42
 70
     1
102
RTVSPropertyOp43
 70
     1
102
RTVSPropertyOp44
 70
     1
102
RTVSPropertyOp45
 70
     1
102
RTVSPropertyOp46
 70
     1
102
RTVSPropertyOp47
 70
     1
102
RTVSPropertyOp48
 70
     1
102
RTVSPropertyOp49
 70
     1
102
RTVSPropertyOp50
 70
     1
102
RTVSPropertyOp51
 70
     0
102
RTVSPropertyOp52
 70
     0
102
RTVSPropertyOp53
 70
     1
102
RTVSPropertyOp54
 70
     1
102
RTVSPropertyOp55
 70
     1
102
RTVSPropertyOp56
 70
     1
102
RTVSPropertyOp57
 70
     1
102
RTVSPropertyOp58
 70
     1
102
RTVSPropertyOp59
 70
     1
102
RTVSPropertyOp60
 70
     1
102
RTVSPropertyOp61
 70
     1
102
RTVSPropertyOp62
 70
     1
  0
XRECORD
  5
1371
102
{ACAD_REACTORS
330
1370
102
}
330
1370
100
AcDbXrecord
280
     1
102
RTVSPost2010Prop28
280
     0
102
RTVSPost2010PropOp28
 70
     1
102
RTVSPost2010Prop29
280
     1
102
RTVSPost2010PropOp29
 70
     1
102
RTVSPost2010Prop30
280
     1
102
RTVSPost2010PropOp30
 70
     1
102
RTVSPost2010Prop31
280
     0
102
RTVSPost2010PropOp31
 70
     1
102
RTVSPost2010Prop32
280
     0
102
RTVSPost2010PropOp32
 70
     1
102
RTVSPost2010Prop33
280
     0
102
RTVSPost2010PropOp33
 70
     1
102
RTVSPost2010Prop34
280
     0
102
RTVSPost2010PropOp34
 70
     1
102
RTVSPost2010Prop35
280
     0
102
RTVSPost2010PropOp35
 70
     1
102
RTVSPost2010Prop36
280
     0
102
RTVSPost2010PropOp36
 70
     1
102
RTVSPost2010Prop37
 90
       50
102
RTVSPost2010PropOp37
 70
     1
102
RTVSPost2010Prop38
140
0.0
102
RTVSPost2010PropOp38
 70
     1
102
RTVSPost2010Prop39
140
1.0
102
RTVSPost2010PropOp39
 70
     1
102
RTVSPost2010Prop40
 90
        0
102
RTVSPost2010PropOp40
 70
     1
102
RTVSPost2010Prop41ColorIndex
 90
       18
102
RTVSPost2010Prop41ColorRGB
 90
        0
102
RTVSPost2010PropOp41
 70
     1
102
RTVSPost2010Prop42
 90
       50
102
RTVSPost2010PropOp42
 70
     1
102
RTVSPost2010Prop43
 90
        3
102
RTVSPost2010PropOp43
 70
     1
102
RTVSPost2010Prop44ColorIndex
 90
        5
102
RTVSPost2010Prop44ColorRGB
 90
      255
102
RTVSPost2010PropOp44
 70
     1
102
RTVSPost2010Prop45
280
     0
102
RTVSPost2010PropOp45
 70
     1
102
RTVSPost2010Prop46
 90
       50
102
RTVSPost2010PropOp46
 70
     1
102
RTVSPost2010Prop47
 90
       50
102
RTVSPost2010PropOp47
 70
     1
102
RTVSPost2010Prop48
 90
       50
102
RTVSPost2010PropOp48
 70
     1
102
RTVSPost2010Prop49
280
     0
102
RTVSPost2010PropOp49
 70
     1
102
RTVSPost2010Prop50
 90
       50
102
RTVSPost2010PropOp50
 70
     1
102
RTVSPost2010Prop51ColorIndex
 90
      256
102
RTVSPost2010Prop51ColorRGB
 90
-16777216
102
RTVSPost2010PropOp51
 70
     0
102
RTVSPost2010Prop52
140
1.0
102
RTVSPost2010PropOp52
 70
     0
102
RTVSPost2010Prop53
 90
        2
102
RTVSPost2010PropOp53
 70
     1
102
RTVSPost2010Prop54
  1
strokes_ogs.tif
102
RTVSPost2010PropOp54
 70
     1
102
RTVSPost2010Prop55
280
     0
102
RTVSPost2010PropOp55
 70
     1
102
RTVSPost2010Prop56
140
1.0
102
RTVSPost2010PropOp56
 70
     1
102
RTVSPost2010Prop57
140
1.0
102
RTVSPost2010PropOp57
 70
     1
102
RTVSPropertyOp0
 70
     1
102
RTVSPropertyOp1
 70
     1
102
RTVSPropertyOp2
 70
     1
102
RTVSPropertyOp3
 70
     1
102
RTVSPropertyOp4
 70
     1
102
RTVSPropertyOp5
 70
     1
102
RTVSPropertyOp6
 70
     1
102
RTVSPropertyOp7
 70
     1
102
RTVSPropertyOp8
 70
     1
102
RTVSPropertyOp9
 70
     1
102
RTVSPropertyOp10
 70
     1
102
RTVSPropertyOp11
 70
     1
102
RTVSPropertyOp12
 70
     1
102
RTVSPropertyOp13
 70
     1
102
RTVSPropertyOp14
 70
     1
102
RTVSPropertyOp15
 70
     1
102
RTVSPropertyOp16
 70
     1
102
RTVSPropertyOp17
 70
     1
102
RTVSPropertyOp18
 70
     1
102
RTVSPropertyOp19
 70
     1
102
RTVSPropertyOp20
 70
     1
102
RTVSPropertyOp21
 70
     1
102
RTVSPropertyOp22
 70
     1
102
RTVSPropertyOp23
 70
     1
102
RTVSPropertyOp24
 70
     1
102
RTVSPropertyOp25
 70
     1
102
RTVSPropertyOp26
 70
     1
102
RTVSPropertyOp27
 70
     1
102
RTVSPropertyOp28
 70
     1
102
RTVSPropertyOp29
 70
     1
102
RTVSPropertyOp30
 70
     1
102
RTVSPropertyOp31
 70
     1
102
RTVSPropertyOp32
 70
     1
102
RTVSPropertyOp33
 70
     1
102
RTVSPropertyOp34
 70
     1
102
RTVSPropertyOp35
 70
     1
102
RTVSPropertyOp36
 70
     1
102
RTVSPropertyOp37
 70
     1
102
RTVSPropertyOp38
 70
     1
102
RTVSPropertyOp39
 70
     1
102
RTVSPropertyOp40
 70
     1
102
RTVSPropertyOp41
 70
     1
102
RTVSPropertyOp42
 70
     1
102
RTVSPropertyOp43
 70
     1
102
RTVSPropertyOp44
 70
     1
102
RTVSPropertyOp45
 70
     1
102
RTVSPropertyOp46
 70
     1
102
RTVSPropertyOp47
 70
     1
102
RTVSPropertyOp48
 70
     1
102
RTVSPropertyOp49
 70
     1
102
RTVSPropertyOp50
 70
     1
102
RTVSPropertyOp51
 70
     0
102
RTVSPropertyOp52
 70
     0
102
RTVSPropertyOp53
 70
     1
102
RTVSPropertyOp54
 70
     1
102
RTVSPropertyOp55
 70
     1
102
RTVSPropertyOp56
 70
     1
102
RTVSPropertyOp57
 70
     1
102
RTVSPropertyOp58
 70
     1
102
RTVSPropertyOp59
 70
     1
102
RTVSPropertyOp60
 70
     1
102
RTVSPropertyOp61
 70
     1
102
RTVSPropertyOp62
 70
     1
  0
XRECORD
  5
1373
102
{ACAD_REACTORS
330
1372
102
}
330
1372
100
AcDbXrecord
280
     1
102
RTVSPost2010Prop28
280
     0
102
RTVSPost2010PropOp28
 70
     1
102
RTVSPost2010Prop29
280
     1
102
RTVSPost2010PropOp29
 70
     1
102
RTVSPost2010Prop30
280
     1
102
RTVSPost2010PropOp30
 70
     1
102
RTVSPost2010Prop31
280
     0
102
RTVSPost2010PropOp31
 70
     1
102
RTVSPost2010Prop32
280
     0
102
RTVSPost2010PropOp32
 70
     1
102
RTVSPost2010Prop33
280
     0
102
RTVSPost2010PropOp33
 70
     1
102
RTVSPost2010Prop34
280
     0
102
RTVSPost2010PropOp34
 70
     1
102
RTVSPost2010Prop35
280
     0
102
RTVSPost2010PropOp35
 70
     1
102
RTVSPost2010Prop36
280
     0
102
RTVSPost2010PropOp36
 70
     1
102
RTVSPost2010Prop37
 90
       50
102
RTVSPost2010PropOp37
 70
     1
102
RTVSPost2010Prop38
140
0.0
102
RTVSPost2010PropOp38
 70
     1
102
RTVSPost2010Prop39
140
1.0
102
RTVSPost2010PropOp39
 70
     1
102
RTVSPost2010Prop40
 90
        0
102
RTVSPost2010PropOp40
 70
     1
102
RTVSPost2010Prop41ColorIndex
 90
       18
102
RTVSPost2010Prop41ColorRGB
 90
        0
102
RTVSPost2010PropOp41
 70
     1
102
RTVSPost2010Prop42
 90
       50
102
RTVSPost2010PropOp42
 70
     1
102
RTVSPost2010Prop43
 90
        3
102
RTVSPost2010PropOp43
 70
     1
102
RTVSPost2010Prop44ColorIndex
 90
        5
102
RTVSPost2010Prop44ColorRGB
 90
      255
102
RTVSPost2010PropOp44
 70
     1
102
RTVSPost2010Prop45
280
     0
102
RTVSPost2010PropOp45
 70
     1
102
RTVSPost2010Prop46
 90
       50
102
RTVSPost2010PropOp46
 70
     1
102
RTVSPost2010Prop47
 90
       50
102
RTVSPost2010PropOp47
 70
     1
102
RTVSPost2010Prop48
 90
       50
102
RTVSPost2010PropOp48
 70
     1
102
RTVSPost2010Prop49
280
     0
102
RTVSPost2010PropOp49
 70
     1
102
RTVSPost2010Prop50
 90
       50
102
RTVSPost2010PropOp50
 70
     1
102
RTVSPost2010Prop51ColorIndex
 90
      256
102
RTVSPost2010Prop51ColorRGB
 90
-16777216
102
RTVSPost2010PropOp51
 70
     0
102
RTVSPost2010Prop52
140
1.0
102
RTVSPost2010PropOp52
 70
     0
102
RTVSPost2010Prop53
 90
        2
102
RTVSPost2010PropOp53
 70
     1
102
RTVSPost2010Prop54
  1
strokes_ogs.tif
102
RTVSPost2010PropOp54
 70
     1
102
RTVSPost2010Prop55
280
     0
102
RTVSPost2010PropOp55
 70
     1
102
RTVSPost2010Prop56
140
1.0
102
RTVSPost2010PropOp56
 70
     1
102
RTVSPost2010Prop57
140
1.0
102
RTVSPost2010PropOp57
 70
     1
102
RTVSPropertyOp0
 70
     1
102
RTVSPropertyOp1
 70
     1
102
RTVSPropertyOp2
 70
     1
102
RTVSPropertyOp3
 70
     1
102
RTVSPropertyOp4
 70
     1
102
RTVSPropertyOp5
 70
     1
102
RTVSPropertyOp6
 70
     1
102
RTVSPropertyOp7
 70
     1
102
RTVSPropertyOp8
 70
     1
102
RTVSPropertyOp9
 70
     1
102
RTVSPropertyOp10
 70
     1
102
RTVSPropertyOp11
 70
     1
102
RTVSPropertyOp12
 70
     1
102
RTVSPropertyOp13
 70
     1
102
RTVSPropertyOp14
 70
     1
102
RTVSPropertyOp15
 70
     1
102
RTVSPropertyOp16
 70
     1
102
RTVSPropertyOp17
 70
     1
102
RTVSPropertyOp18
 70
     1
102
RTVSPropertyOp19
 70
     1
102
RTVSPropertyOp20
 70
     1
102
RTVSPropertyOp21
 70
     1
102
RTVSPropertyOp22
 70
     1
102
RTVSPropertyOp23
 70
     1
102
RTVSPropertyOp24
 70
     1
102
RTVSPropertyOp25
 70
     1
102
RTVSPropertyOp26
 70
     1
102
RTVSPropertyOp27
 70
     1
102
RTVSPropertyOp28
 70
     1
102
RTVSPropertyOp29
 70
     1
102
RTVSPropertyOp30
 70
     1
102
RTVSPropertyOp31
 70
     1
102
RTVSPropertyOp32
 70
     1
102
RTVSPropertyOp33
 70
     1
102
RTVSPropertyOp34
 70
     1
102
RTVSPropertyOp35
 70
     1
102
RTVSPropertyOp36
 70
     1
102
RTVSPropertyOp37
 70
     1
102
RTVSPropertyOp38
 70
     1
102
RTVSPropertyOp39
 70
     1
102
RTVSPropertyOp40
 70
     1
102
RTVSPropertyOp41
 70
     1
102
RTVSPropertyOp42
 70
     1
102
RTVSPropertyOp43
 70
     1
102
RTVSPropertyOp44
 70
     1
102
RTVSPropertyOp45
 70
     1
102
RTVSPropertyOp46
 70
     1
102
RTVSPropertyOp47
 70
     1
102
RTVSPropertyOp48
 70
     1
102
RTVSPropertyOp49
 70
     1
102
RTVSPropertyOp50
 70
     1
102
RTVSPropertyOp51
 70
     0
102
RTVSPropertyOp52
 70
     0
102
RTVSPropertyOp53
 70
     1
102
RTVSPropertyOp54
 70
     1
102
RTVSPropertyOp55
 70
     1
102
RTVSPropertyOp56
 70
     1
102
RTVSPropertyOp57
 70
     1
102
RTVSPropertyOp58
 70
     1
102
RTVSPropertyOp59
 70
     1
102
RTVSPropertyOp60
 70
     1
102
RTVSPropertyOp61
 70
     1
102
RTVSPropertyOp62
 70
     1
  0
XRECORD
  5
137B
102
{ACAD_REACTORS
330
137A
102
}
330
137A
100
AcDbXrecord
280
     1
102
RTVSPost2010Prop28
280
     0
102
RTVSPost2010PropOp28
 70
     1
102
RTVSPost2010Prop29
280
     1
102
RTVSPost2010PropOp29
 70
     1
102
RTVSPost2010Prop30
280
     1
102
RTVSPost2010PropOp30
 70
     1
102
RTVSPost2010Prop31
280
     0
102
RTVSPost2010PropOp31
 70
     1
102
RTVSPost2010Prop32
280
     0
102
RTVSPost2010PropOp32
 70
     1
102
RTVSPost2010Prop33
280
     0
102
RTVSPost2010PropOp33
 70
     1
102
RTVSPost2010Prop34
280
     0
102
RTVSPost2010PropOp34
 70
     1
102
RTVSPost2010Prop35
280
     0
102
RTVSPost2010PropOp35
 70
     1
102
RTVSPost2010Prop36
280
     0
102
RTVSPost2010PropOp36
 70
     1
102
RTVSPost2010Prop37
 90
       50
102
RTVSPost2010PropOp37
 70
     1
102
RTVSPost2010Prop38
140
0.0
102
RTVSPost2010PropOp38
 70
     1
102
RTVSPost2010Prop39
140
1.0
102
RTVSPost2010PropOp39
 70
     1
102
RTVSPost2010Prop40
 90
        0
102
RTVSPost2010PropOp40
 70
     1
102
RTVSPost2010Prop41ColorIndex
 90
       18
102
RTVSPost2010Prop41ColorRGB
 90
        0
102
RTVSPost2010PropOp41
 70
     1
102
RTVSPost2010Prop42
 90
       50
102
RTVSPost2010PropOp42
 70
     1
102
RTVSPost2010Prop43
 90
        3
102
RTVSPost2010PropOp43
 70
     1
102
RTVSPost2010Prop44ColorIndex
 90
        5
102
RTVSPost2010Prop44ColorRGB
 90
      255
102
RTVSPost2010PropOp44
 70
     1
102
RTVSPost2010Prop45
280
     0
102
RTVSPost2010PropOp45
 70
     1
102
RTVSPost2010Prop46
 90
       50
102
RTVSPost2010PropOp46
 70
     1
102
RTVSPost2010Prop47
 90
       50
102
RTVSPost2010PropOp47
 70
     1
102
RTVSPost2010Prop48
 90
       50
102
RTVSPost2010PropOp48
 70
     1
102
RTVSPost2010Prop49
280
     0
102
RTVSPost2010PropOp49
 70
     1
102
RTVSPost2010Prop50
 90
       50
102
RTVSPost2010PropOp50
 70
     1
102
RTVSPost2010Prop51ColorIndex
 90
      256
102
RTVSPost2010Prop51ColorRGB
 90
-16777216
102
RTVSPost2010PropOp51
 70
     0
102
RTVSPost2010Prop52
140
1.0
102
RTVSPost2010PropOp52
 70
     0
102
RTVSPost2010Prop53
 90
        2
102
RTVSPost2010PropOp53
 70
     1
102
RTVSPost2010Prop54
  1
strokes_ogs.tif
102
RTVSPost2010PropOp54
 70
     1
102
RTVSPost2010Prop55
280
     0
102
RTVSPost2010PropOp55
 70
     1
102
RTVSPost2010Prop56
140
1.0
102
RTVSPost2010PropOp56
 70
     1
102
RTVSPost2010Prop57
140
1.0
102
RTVSPost2010PropOp57
 70
     1
102
RTVSPropertyOp0
 70
     1
102
RTVSPropertyOp1
 70
     1
102
RTVSPropertyOp2
 70
     1
102
RTVSPropertyOp3
 70
     1
102
RTVSPropertyOp4
 70
     1
102
RTVSPropertyOp5
 70
     1
102
RTVSPropertyOp6
 70
     1
102
RTVSPropertyOp7
 70
     1
102
RTVSPropertyOp8
 70
     1
102
RTVSPropertyOp9
 70
     1
102
RTVSPropertyOp10
 70
     1
102
RTVSPropertyOp11
 70
     1
102
RTVSPropertyOp12
 70
     1
102
RTVSPropertyOp13
 70
     1
102
RTVSPropertyOp14
 70
     1
102
RTVSPropertyOp15
 70
     1
102
RTVSPropertyOp16
 70
     1
102
RTVSPropertyOp17
 70
     1
102
RTVSPropertyOp18
 70
     1
102
RTVSPropertyOp19
 70
     1
102
RTVSPropertyOp20
 70
     1
102
RTVSPropertyOp21
 70
     1
102
RTVSPropertyOp22
 70
     1
102
RTVSPropertyOp23
 70
     1
102
RTVSPropertyOp24
 70
     1
102
RTVSPropertyOp25
 70
     1
102
RTVSPropertyOp26
 70
     1
102
RTVSPropertyOp27
 70
     1
102
RTVSPropertyOp28
 70
     1
102
RTVSPropertyOp29
 70
     1
102
RTVSPropertyOp30
 70
     1
102
RTVSPropertyOp31
 70
     1
102
RTVSPropertyOp32
 70
     1
102
RTVSPropertyOp33
 70
     1
102
RTVSPropertyOp34
 70
     1
102
RTVSPropertyOp35
 70
     1
102
RTVSPropertyOp36
 70
     1
102
RTVSPropertyOp37
 70
     1
102
RTVSPropertyOp38
 70
     1
102
RTVSPropertyOp39
 70
     1
102
RTVSPropertyOp40
 70
     1
102
RTVSPropertyOp41
 70
     1
102
RTVSPropertyOp42
 70
     1
102
RTVSPropertyOp43
 70
     1
102
RTVSPropertyOp44
 70
     1
102
RTVSPropertyOp45
 70
     1
102
RTVSPropertyOp46
 70
     1
102
RTVSPropertyOp47
 70
     1
102
RTVSPropertyOp48
 70
     1
102
RTVSPropertyOp49
 70
     1
102
RTVSPropertyOp50
 70
     1
102
RTVSPropertyOp51
 70
     0
102
RTVSPropertyOp52
 70
     0
102
RTVSPropertyOp53
 70
     1
102
RTVSPropertyOp54
 70
     1
102
RTVSPropertyOp55
 70
     1
102
RTVSPropertyOp56
 70
     1
102
RTVSPropertyOp57
 70
     1
102
RTVSPropertyOp58
 70
     1
102
RTVSPropertyOp59
 70
     1
102
RTVSPropertyOp60
 70
     1
102
RTVSPropertyOp61
 70
     1
102
RTVSPropertyOp62
 70
     1
  0
XRECORD
  5
138F
102
{ACAD_REACTORS
330
138E
102
}
330
138E
100
AcDbXrecord
280
     1
102
RTVSPost2010Prop28
280
     0
102
RTVSPost2010PropOp28
 70
     1
102
RTVSPost2010Prop29
280
     1
102
RTVSPost2010PropOp29
 70
     1
102
RTVSPost2010Prop30
280
     1
102
RTVSPost2010PropOp30
 70
     1
102
RTVSPost2010Prop31
280
     0
102
RTVSPost2010PropOp31
 70
     1
102
RTVSPost2010Prop32
280
     0
102
RTVSPost2010PropOp32
 70
     1
102
RTVSPost2010Prop33
280
     0
102
RTVSPost2010PropOp33
 70
     1
102
RTVSPost2010Prop34
280
     0
102
RTVSPost2010PropOp34
 70
     1
102
RTVSPost2010Prop35
280
     0
102
RTVSPost2010PropOp35
 70
     1
102
RTVSPost2010Prop36
280
     0
102
RTVSPost2010PropOp36
 70
     1
102
RTVSPost2010Prop37
 90
       50
102
RTVSPost2010PropOp37
 70
     1
102
RTVSPost2010Prop38
140
0.0
102
RTVSPost2010PropOp38
 70
     1
102
RTVSPost2010Prop39
140
1.0
102
RTVSPost2010PropOp39
 70
     1
102
RTVSPost2010Prop40
 90
        0
102
RTVSPost2010PropOp40
 70
     1
102
RTVSPost2010Prop41ColorIndex
 90
       18
102
RTVSPost2010Prop41ColorRGB
 90
        0
102
RTVSPost2010PropOp41
 70
     1
102
RTVSPost2010Prop42
 90
       50
102
RTVSPost2010PropOp42
 70
     1
102
RTVSPost2010Prop43
 90
        3
102
RTVSPost2010PropOp43
 70
     1
102
RTVSPost2010Prop44ColorIndex
 90
        5
102
RTVSPost2010Prop44ColorRGB
 90
      255
102
RTVSPost2010PropOp44
 70
     1
102
RTVSPost2010Prop45
280
     0
102
RTVSPost2010PropOp45
 70
     1
102
RTVSPost2010Prop46
 90
       50
102
RTVSPost2010PropOp46
 70
     1
102
RTVSPost2010Prop47
 90
       50
102
RTVSPost2010PropOp47
 70
     1
102
RTVSPost2010Prop48
 90
       50
102
RTVSPost2010PropOp48
 70
     1
102
RTVSPost2010Prop49
280
     0
102
RTVSPost2010PropOp49
 70
     1
102
RTVSPost2010Prop50
 90
       50
102
RTVSPost2010PropOp50
 70
     1
102
RTVSPost2010Prop51ColorIndex
 90
      256
102
RTVSPost2010Prop51ColorRGB
 90
-16777216
102
RTVSPost2010PropOp51
 70
     0
102
RTVSPost2010Prop52
140
1.0
102
RTVSPost2010PropOp52
 70
     0
102
RTVSPost2010Prop53
 90
        2
102
RTVSPost2010PropOp53
 70
     1
102
RTVSPost2010Prop54
  1
strokes_ogs.tif
102
RTVSPost2010PropOp54
 70
     1
102
RTVSPost2010Prop55
280
     0
102
RTVSPost2010PropOp55
 70
     1
102
RTVSPost2010Prop56
140
1.0
102
RTVSPost2010PropOp56
 70
     1
102
RTVSPost2010Prop57
140
1.0
102
RTVSPost2010PropOp57
 70
     1
102
RTVSPropertyOp0
 70
     0
102
RTVSPropertyOp1
 70
     0
102
RTVSPropertyOp2
 70
     0
102
RTVSPropertyOp3
 70
     0
102
RTVSPropertyOp4
 70
     0
102
RTVSPropertyOp5
 70
     0
102
RTVSPropertyOp6
 70
     0
102
RTVSPropertyOp7
 70
     0
102
RTVSPropertyOp8
 70
     0
102
RTVSPropertyOp9
 70
     0
102
RTVSPropertyOp10
 70
     0
102
RTVSPropertyOp11
 70
     0
102
RTVSPropertyOp12
 70
     0
102
RTVSPropertyOp13
 70
     0
102
RTVSPropertyOp14
 70
     2
102
RTVSPropertyOp15
 70
     0
102
RTVSPropertyOp16
 70
     0
102
RTVSPropertyOp17
 70
     0
102
RTVSPropertyOp18
 70
     0
102
RTVSPropertyOp19
 70
     0
102
RTVSPropertyOp20
 70
     0
102
RTVSPropertyOp21
 70
     0
102
RTVSPropertyOp22
 70
     0
102
RTVSPropertyOp23
 70
     0
102
RTVSPropertyOp24
 70
     0
102
RTVSPropertyOp25
 70
     0
102
RTVSPropertyOp26
 70
     0
102
RTVSPropertyOp27
 70
     0
102
RTVSPropertyOp28
 70
     1
102
RTVSPropertyOp29
 70
     1
102
RTVSPropertyOp30
 70
     1
102
RTVSPropertyOp31
 70
     1
102
RTVSPropertyOp32
 70
     1
102
RTVSPropertyOp33
 70
     1
102
RTVSPropertyOp34
 70
     1
102
RTVSPropertyOp35
 70
     1
102
RTVSPropertyOp36
 70
     1
102
RTVSPropertyOp37
 70
     1
102
RTVSPropertyOp38
 70
     1
102
RTVSPropertyOp39
 70
     1
102
RTVSPropertyOp40
 70
     1
102
RTVSPropertyOp41
 70
     1
102
RTVSPropertyOp42
 70
     1
102
RTVSPropertyOp43
 70
     1
102
RTVSPropertyOp44
 70
     1
102
RTVSPropertyOp45
 70
     1
102
RTVSPropertyOp46
 70
     1
102
RTVSPropertyOp47
 70
     1
102
RTVSPropertyOp48
 70
     1
102
RTVSPropertyOp49
 70
     1
102
RTVSPropertyOp50
 70
     1
102
RTVSPropertyOp51
 70
     0
102
RTVSPropertyOp52
 70
     0
102
RTVSPropertyOp53
 70
     1
102
RTVSPropertyOp54
 70
     1
102
RTVSPropertyOp55
 70
     1
102
RTVSPropertyOp56
 70
     1
102
RTVSPropertyOp57
 70
     1
102
RTVSPropertyOp58
 70
     1
102
RTVSPropertyOp59
 70
     1
102
RTVSPropertyOp60
 70
     1
102
RTVSPropertyOp61
 70
     1
102
RTVSPropertyOp62
 70
     1
  0
XRECORD
  5
1387
102
{ACAD_REACTORS
330
1386
102
}
330
1386
100
AcDbXrecord
280
     1
102
RTVSPost2010Prop28
280
     0
102
RTVSPost2010PropOp28
 70
     1
102
RTVSPost2010Prop29
280
     1
102
RTVSPost2010PropOp29
 70
     1
102
RTVSPost2010Prop30
280
     1
102
RTVSPost2010PropOp30
 70
     1
102
RTVSPost2010Prop31
280
     0
102
RTVSPost2010PropOp31
 70
     1
102
RTVSPost2010Prop32
280
     0
102
RTVSPost2010PropOp32
 70
     1
102
RTVSPost2010Prop33
280
     0
102
RTVSPost2010PropOp33
 70
     1
102
RTVSPost2010Prop34
280
     0
102
RTVSPost2010PropOp34
 70
     1
102
RTVSPost2010Prop35
280
     0
102
RTVSPost2010PropOp35
 70
     1
102
RTVSPost2010Prop36
280
     0
102
RTVSPost2010PropOp36
 70
     1
102
RTVSPost2010Prop37
 90
       50
102
RTVSPost2010PropOp37
 70
     1
102
RTVSPost2010Prop38
140
0.0
102
RTVSPost2010PropOp38
 70
     1
102
RTVSPost2010Prop39
140
1.0
102
RTVSPost2010PropOp39
 70
     1
102
RTVSPost2010Prop40
 90
        0
102
RTVSPost2010PropOp40
 70
     1
102
RTVSPost2010Prop41ColorIndex
 90
       18
102
RTVSPost2010Prop41ColorRGB
 90
        0
102
RTVSPost2010PropOp41
 70
     1
102
RTVSPost2010Prop42
 90
       50
102
RTVSPost2010PropOp42
 70
     1
102
RTVSPost2010Prop43
 90
        3
102
RTVSPost2010PropOp43
 70
     1
102
RTVSPost2010Prop44ColorIndex
 90
        5
102
RTVSPost2010Prop44ColorRGB
 90
      255
102
RTVSPost2010PropOp44
 70
     1
102
RTVSPost2010Prop45
280
     0
102
RTVSPost2010PropOp45
 70
     1
102
RTVSPost2010Prop46
 90
       50
102
RTVSPost2010PropOp46
 70
     1
102
RTVSPost2010Prop47
 90
       50
102
RTVSPost2010PropOp47
 70
     1
102
RTVSPost2010Prop48
 90
       50
102
RTVSPost2010PropOp48
 70
     1
102
RTVSPost2010Prop49
280
     0
102
RTVSPost2010PropOp49
 70
     1
102
RTVSPost2010Prop50
 90
       50
102
RTVSPost2010PropOp50
 70
     1
102
RTVSPost2010Prop51ColorIndex
 90
      256
102
RTVSPost2010Prop51ColorRGB
 90
-16777216
102
RTVSPost2010PropOp51
 70
     0
102
RTVSPost2010Prop52
140
1.0
102
RTVSPost2010PropOp52
 70
     0
102
RTVSPost2010Prop53
 90
        2
102
RTVSPost2010PropOp53
 70
     1
102
RTVSPost2010Prop54
  1
strokes_ogs.tif
102
RTVSPost2010PropOp54
 70
     1
102
RTVSPost2010Prop55
280
     0
102
RTVSPost2010PropOp55
 70
     1
102
RTVSPost2010Prop56
140
1.0
102
RTVSPost2010PropOp56
 70
     1
102
RTVSPost2010Prop57
140
1.0
102
RTVSPost2010PropOp57
 70
     1
102
RTVSPropertyOp0
 70
     1
102
RTVSPropertyOp1
 70
     1
102
RTVSPropertyOp2
 70
     1
102
RTVSPropertyOp3
 70
     1
102
RTVSPropertyOp4
 70
     1
102
RTVSPropertyOp5
 70
     1
102
RTVSPropertyOp6
 70
     1
102
RTVSPropertyOp7
 70
     1
102
RTVSPropertyOp8
 70
     1
102
RTVSPropertyOp9
 70
     1
102
RTVSPropertyOp10
 70
     1
102
RTVSPropertyOp11
 70
     1
102
RTVSPropertyOp12
 70
     1
102
RTVSPropertyOp13
 70
     1
102
RTVSPropertyOp14
 70
     1
102
RTVSPropertyOp15
 70
     1
102
RTVSPropertyOp16
 70
     1
102
RTVSPropertyOp17
 70
     1
102
RTVSPropertyOp18
 70
     1
102
RTVSPropertyOp19
 70
     1
102
RTVSPropertyOp20
 70
     1
102
RTVSPropertyOp21
 70
     1
102
RTVSPropertyOp22
 70
     1
102
RTVSPropertyOp23
 70
     1
102
RTVSPropertyOp24
 70
     1
102
RTVSPropertyOp25
 70
     1
102
RTVSPropertyOp26
 70
     1
102
RTVSPropertyOp27
 70
     1
102
RTVSPropertyOp28
 70
     1
102
RTVSPropertyOp29
 70
     1
102
RTVSPropertyOp30
 70
     1
102
RTVSPropertyOp31
 70
     1
102
RTVSPropertyOp32
 70
     1
102
RTVSPropertyOp33
 70
     1
102
RTVSPropertyOp34
 70
     1
102
RTVSPropertyOp35
 70
     1
102
RTVSPropertyOp36
 70
     1
102
RTVSPropertyOp37
 70
     1
102
RTVSPropertyOp38
 70
     1
102
RTVSPropertyOp39
 70
     1
102
RTVSPropertyOp40
 70
     1
102
RTVSPropertyOp41
 70
     1
102
RTVSPropertyOp42
 70
     1
102
RTVSPropertyOp43
 70
     1
102
RTVSPropertyOp44
 70
     1
102
RTVSPropertyOp45
 70
     1
102
RTVSPropertyOp46
 70
     1
102
RTVSPropertyOp47
 70
     1
102
RTVSPropertyOp48
 70
     1
102
RTVSPropertyOp49
 70
     1
102
RTVSPropertyOp50
 70
     1
102
RTVSPropertyOp51
 70
     0
102
RTVSPropertyOp52
 70
     0
102
RTVSPropertyOp53
 70
     1
102
RTVSPropertyOp54
 70
     1
102
RTVSPropertyOp55
 70
     1
102
RTVSPropertyOp56
 70
     1
102
RTVSPropertyOp57
 70
     1
102
RTVSPropertyOp58
 70
     1
102
RTVSPropertyOp59
 70
     1
102
RTVSPropertyOp60
 70
     1
102
RTVSPropertyOp61
 70
     1
102
RTVSPropertyOp62
 70
     1
  0
XRECORD
  5
1391
102
{ACAD_REACTORS
330
1390
102
}
330
1390
100
AcDbXrecord
280
     1
102
RTVSPost2010Prop28
280
     0
102
RTVSPost2010PropOp28
 70
     1
102
RTVSPost2010Prop29
280
     1
102
RTVSPost2010PropOp29
 70
     1
102
RTVSPost2010Prop30
280
     1
102
RTVSPost2010PropOp30
 70
     1
102
RTVSPost2010Prop31
280
     0
102
RTVSPost2010PropOp31
 70
     1
102
RTVSPost2010Prop32
280
     0
102
RTVSPost2010PropOp32
 70
     1
102
RTVSPost2010Prop33
280
     0
102
RTVSPost2010PropOp33
 70
     1
102
RTVSPost2010Prop34
280
     0
102
RTVSPost2010PropOp34
 70
     1
102
RTVSPost2010Prop35
280
     0
102
RTVSPost2010PropOp35
 70
     1
102
RTVSPost2010Prop36
280
     0
102
RTVSPost2010PropOp36
 70
     1
102
RTVSPost2010Prop37
 90
       50
102
RTVSPost2010PropOp37
 70
     1
102
RTVSPost2010Prop38
140
0.0
102
RTVSPost2010PropOp38
 70
     1
102
RTVSPost2010Prop39
140
1.0
102
RTVSPost2010PropOp39
 70
     1
102
RTVSPost2010Prop40
 90
        0
102
RTVSPost2010PropOp40
 70
     1
102
RTVSPost2010Prop41ColorIndex
 90
       18
102
RTVSPost2010Prop41ColorRGB
 90
        0
102
RTVSPost2010PropOp41
 70
     1
102
RTVSPost2010Prop42
 90
       50
102
RTVSPost2010PropOp42
 70
     1
102
RTVSPost2010Prop43
 90
        3
102
RTVSPost2010PropOp43
 70
     1
102
RTVSPost2010Prop44ColorIndex
 90
        5
102
RTVSPost2010Prop44ColorRGB
 90
      255
102
RTVSPost2010PropOp44
 70
     1
102
RTVSPost2010Prop45
280
     0
102
RTVSPost2010PropOp45
 70
     1
102
RTVSPost2010Prop46
 90
       50
102
RTVSPost2010PropOp46
 70
     1
102
RTVSPost2010Prop47
 90
       50
102
RTVSPost2010PropOp47
 70
     1
102
RTVSPost2010Prop48
 90
       50
102
RTVSPost2010PropOp48
 70
     1
102
RTVSPost2010Prop49
280
     0
102
RTVSPost2010PropOp49
 70
     1
102
RTVSPost2010Prop50
 90
       50
102
RTVSPost2010PropOp50
 70
     1
102
RTVSPost2010Prop51ColorIndex
 90
      256
102
RTVSPost2010Prop51ColorRGB
 90
-16777216
102
RTVSPost2010PropOp51
 70
     0
102
RTVSPost2010Prop52
140
1.0
102
RTVSPost2010PropOp52
 70
     0
102
RTVSPost2010Prop53
 90
        2
102
RTVSPost2010PropOp53
 70
     1
102
RTVSPost2010Prop54
  1
strokes_ogs.tif
102
RTVSPost2010PropOp54
 70
     1
102
RTVSPost2010Prop55
280
     0
102
RTVSPost2010PropOp55
 70
     1
102
RTVSPost2010Prop56
140
1.0
102
RTVSPost2010PropOp56
 70
     1
102
RTVSPost2010Prop57
140
1.0
102
RTVSPost2010PropOp57
 70
     1
102
RTVSPropertyOp0
 70
     0
102
RTVSPropertyOp1
 70
     0
102
RTVSPropertyOp2
 70
     0
102
RTVSPropertyOp3
 70
     0
102
RTVSPropertyOp4
 70
     0
102
RTVSPropertyOp5
 70
     0
102
RTVSPropertyOp6
 70
     0
102
RTVSPropertyOp7
 70
     0
102
RTVSPropertyOp8
 70
     0
102
RTVSPropertyOp9
 70
     0
102
RTVSPropertyOp10
 70
     0
102
RTVSPropertyOp11
 70
     0
102
RTVSPropertyOp12
 70
     0
102
RTVSPropertyOp13
 70
     0
102
RTVSPropertyOp14
 70
     2
102
RTVSPropertyOp15
 70
     0
102
RTVSPropertyOp16
 70
     0
102
RTVSPropertyOp17
 70
     0
102
RTVSPropertyOp18
 70
     0
102
RTVSPropertyOp19
 70
     0
102
RTVSPropertyOp20
 70
     0
102
RTVSPropertyOp21
 70
     0
102
RTVSPropertyOp22
 70
     0
102
RTVSPropertyOp23
 70
     0
102
RTVSPropertyOp24
 70
     0
102
RTVSPropertyOp25
 70
     0
102
RTVSPropertyOp26
 70
     0
102
RTVSPropertyOp27
 70
     0
102
RTVSPropertyOp28
 70
     1
102
RTVSPropertyOp29
 70
     1
102
RTVSPropertyOp30
 70
     1
102
RTVSPropertyOp31
 70
     1
102
RTVSPropertyOp32
 70
     1
102
RTVSPropertyOp33
 70
     1
102
RTVSPropertyOp34
 70
     1
102
RTVSPropertyOp35
 70
     1
102
RTVSPropertyOp36
 70
     1
102
RTVSPropertyOp37
 70
     1
102
RTVSPropertyOp38
 70
     1
102
RTVSPropertyOp39
 70
     1
102
RTVSPropertyOp40
 70
     1
102
RTVSPropertyOp41
 70
     1
102
RTVSPropertyOp42
 70
     1
102
RTVSPropertyOp43
 70
     1
102
RTVSPropertyOp44
 70
     1
102
RTVSPropertyOp45
 70
     1
102
RTVSPropertyOp46
 70
     1
102
RTVSPropertyOp47
 70
     1
102
RTVSPropertyOp48
 70
     1
102
RTVSPropertyOp49
 70
     1
102
RTVSPropertyOp50
 70
     1
102
RTVSPropertyOp51
 70
     0
102
RTVSPropertyOp52
 70
     0
102
RTVSPropertyOp53
 70
     1
102
RTVSPropertyOp54
 70
     1
102
RTVSPropertyOp55
 70
     1
102
RTVSPropertyOp56
 70
     1
102
RTVSPropertyOp57
 70
     1
102
RTVSPropertyOp58
 70
     1
102
RTVSPropertyOp59
 70
     1
102
RTVSPropertyOp60
 70
     1
102
RTVSPropertyOp61
 70
     1
102
RTVSPropertyOp62
 70
     1
  0
XRECORD
  5
137F
102
{ACAD_REACTORS
330
137E
102
}
330
137E
100
AcDbXrecord
280
     1
102
RTVSPost2010Prop28
280
     0
102
RTVSPost2010PropOp28
 70
     1
102
RTVSPost2010Prop29
280
     1
102
RTVSPost2010PropOp29
 70
     1
102
RTVSPost2010Prop30
280
     1
102
RTVSPost2010PropOp30
 70
     1
102
RTVSPost2010Prop31
280
     0
102
RTVSPost2010PropOp31
 70
     1
102
RTVSPost2010Prop32
280
     0
102
RTVSPost2010PropOp32
 70
     1
102
RTVSPost2010Prop33
280
     0
102
RTVSPost2010PropOp33
 70
     1
102
RTVSPost2010Prop34
280
     0
102
RTVSPost2010PropOp34
 70
     1
102
RTVSPost2010Prop35
280
     0
102
RTVSPost2010PropOp35
 70
     1
102
RTVSPost2010Prop36
280
     0
102
RTVSPost2010PropOp36
 70
     1
102
RTVSPost2010Prop37
 90
       50
102
RTVSPost2010PropOp37
 70
     1
102
RTVSPost2010Prop38
140
0.0
102
RTVSPost2010PropOp38
 70
     1
102
RTVSPost2010Prop39
140
1.0
102
RTVSPost2010PropOp39
 70
     1
102
RTVSPost2010Prop40
 90
        0
102
RTVSPost2010PropOp40
 70
     1
102
RTVSPost2010Prop41ColorIndex
 90
       18
102
RTVSPost2010Prop41ColorRGB
 90
        0
102
RTVSPost2010PropOp41
 70
     1
102
RTVSPost2010Prop42
 90
       50
102
RTVSPost2010PropOp42
 70
     1
102
RTVSPost2010Prop43
 90
        3
102
RTVSPost2010PropOp43
 70
     1
102
RTVSPost2010Prop44ColorIndex
 90
        5
102
RTVSPost2010Prop44ColorRGB
 90
      255
102
RTVSPost2010PropOp44
 70
     1
102
RTVSPost2010Prop45
280
     0
102
RTVSPost2010PropOp45
 70
     1
102
RTVSPost2010Prop46
 90
       50
102
RTVSPost2010PropOp46
 70
     1
102
RTVSPost2010Prop47
 90
       50
102
RTVSPost2010PropOp47
 70
     1
102
RTVSPost2010Prop48
 90
       50
102
RTVSPost2010PropOp48
 70
     1
102
RTVSPost2010Prop49
280
     0
102
RTVSPost2010PropOp49
 70
     1
102
RTVSPost2010Prop50
 90
       50
102
RTVSPost2010PropOp50
 70
     1
102
RTVSPost2010Prop51ColorIndex
 90
      256
102
RTVSPost2010Prop51ColorRGB
 90
-16777216
102
RTVSPost2010PropOp51
 70
     0
102
RTVSPost2010Prop52
140
1.0
102
RTVSPost2010PropOp52
 70
     0
102
RTVSPost2010Prop53
 90
        2
102
RTVSPost2010PropOp53
 70
     1
102
RTVSPost2010Prop54
  1
strokes_ogs.tif
102
RTVSPost2010PropOp54
 70
     1
102
RTVSPost2010Prop55
280
     0
102
RTVSPost2010PropOp55
 70
     1
102
RTVSPost2010Prop56
140
1.0
102
RTVSPost2010PropOp56
 70
     1
102
RTVSPost2010Prop57
140
1.0
102
RTVSPost2010PropOp57
 70
     1
102
RTVSPropertyOp0
 70
     1
102
RTVSPropertyOp1
 70
     1
102
RTVSPropertyOp2
 70
     1
102
RTVSPropertyOp3
 70
     1
102
RTVSPropertyOp4
 70
     1
102
RTVSPropertyOp5
 70
     1
102
RTVSPropertyOp6
 70
     1
102
RTVSPropertyOp7
 70
     1
102
RTVSPropertyOp8
 70
     1
102
RTVSPropertyOp9
 70
     1
102
RTVSPropertyOp10
 70
     1
102
RTVSPropertyOp11
 70
     1
102
RTVSPropertyOp12
 70
     1
102
RTVSPropertyOp13
 70
     1
102
RTVSPropertyOp14
 70
     1
102
RTVSPropertyOp15
 70
     1
102
RTVSPropertyOp16
 70
     1
102
RTVSPropertyOp17
 70
     1
102
RTVSPropertyOp18
 70
     1
102
RTVSPropertyOp19
 70
     1
102
RTVSPropertyOp20
 70
     1
102
RTVSPropertyOp21
 70
     1
102
RTVSPropertyOp22
 70
     1
102
RTVSPropertyOp23
 70
     1
102
RTVSPropertyOp24
 70
     1
102
RTVSPropertyOp25
 70
     1
102
RTVSPropertyOp26
 70
     1
102
RTVSPropertyOp27
 70
     1
102
RTVSPropertyOp28
 70
     1
102
RTVSPropertyOp29
 70
     1
102
RTVSPropertyOp30
 70
     1
102
RTVSPropertyOp31
 70
     1
102
RTVSPropertyOp32
 70
     1
102
RTVSPropertyOp33
 70
     1
102
RTVSPropertyOp34
 70
     1
102
RTVSPropertyOp35
 70
     1
102
RTVSPropertyOp36
 70
     1
102
RTVSPropertyOp37
 70
     1
102
RTVSPropertyOp38
 70
     1
102
RTVSPropertyOp39
 70
     1
102
RTVSPropertyOp40
 70
     1
102
RTVSPropertyOp41
 70
     1
102
RTVSPropertyOp42
 70
     1
102
RTVSPropertyOp43
 70
     1
102
RTVSPropertyOp44
 70
     1
102
RTVSPropertyOp45
 70
     1
102
RTVSPropertyOp46
 70
     1
102
RTVSPropertyOp47
 70
     1
102
RTVSPropertyOp48
 70
     1
102
RTVSPropertyOp49
 70
     1
102
RTVSPropertyOp50
 70
     1
102
RTVSPropertyOp51
 70
     0
102
RTVSPropertyOp52
 70
     0
102
RTVSPropertyOp53
 70
     1
102
RTVSPropertyOp54
 70
     1
102
RTVSPropertyOp55
 70
     1
102
RTVSPropertyOp56
 70
     1
102
RTVSPropertyOp57
 70
     1
102
RTVSPropertyOp58
 70
     1
102
RTVSPropertyOp59
 70
     1
102
RTVSPropertyOp60
 70
     1
102
RTVSPropertyOp61
 70
     1
102
RTVSPropertyOp62
 70
     1
  0
XRECORD
  5
139D
102
{ACAD_REACTORS
330
139C
102
}
330
139C
100
AcDbXrecord
280
     1
102
RTVSPost2010Prop28
280
     0
102
RTVSPost2010PropOp28
 70
     1
102
RTVSPost2010Prop29
280
     1
102
RTVSPost2010PropOp29
 70
     1
102
RTVSPost2010Prop30
280
     1
102
RTVSPost2010PropOp30
 70
     1
102
RTVSPost2010Prop31
280
     0
102
RTVSPost2010PropOp31
 70
     1
102
RTVSPost2010Prop32
280
     0
102
RTVSPost2010PropOp32
 70
     1
102
RTVSPost2010Prop33
280
     0
102
RTVSPost2010PropOp33
 70
     1
102
RTVSPost2010Prop34
280
     0
102
RTVSPost2010PropOp34
 70
     1
102
RTVSPost2010Prop35
280
     0
102
RTVSPost2010PropOp35
 70
     1
102
RTVSPost2010Prop36
280
     0
102
RTVSPost2010PropOp36
 70
     1
102
RTVSPost2010Prop37
 90
       50
102
RTVSPost2010PropOp37
 70
     1
102
RTVSPost2010Prop38
140
0.0
102
RTVSPost2010PropOp38
 70
     1
102
RTVSPost2010Prop39
140
1.0
102
RTVSPost2010PropOp39
 70
     1
102
RTVSPost2010Prop40
 90
        0
102
RTVSPost2010PropOp40
 70
     1
102
RTVSPost2010Prop41ColorIndex
 90
       18
102
RTVSPost2010Prop41ColorRGB
 90
        0
102
RTVSPost2010PropOp41
 70
     1
102
RTVSPost2010Prop42
 90
       50
102
RTVSPost2010PropOp42
 70
     1
102
RTVSPost2010Prop43
 90
        3
102
RTVSPost2010PropOp43
 70
     1
102
RTVSPost2010Prop44ColorIndex
 90
        5
102
RTVSPost2010Prop44ColorRGB
 90
      255
102
RTVSPost2010PropOp44
 70
     1
102
RTVSPost2010Prop45
280
     0
102
RTVSPost2010PropOp45
 70
     1
102
RTVSPost2010Prop46
 90
       50
102
RTVSPost2010PropOp46
 70
     1
102
RTVSPost2010Prop47
 90
       50
102
RTVSPost2010PropOp47
 70
     1
102
RTVSPost2010Prop48
 90
       50
102
RTVSPost2010PropOp48
 70
     1
102
RTVSPost2010Prop49
280
     0
102
RTVSPost2010PropOp49
 70
     1
102
RTVSPost2010Prop50
 90
       50
102
RTVSPost2010PropOp50
 70
     1
102
RTVSPost2010Prop51ColorIndex
 90
      256
102
RTVSPost2010Prop51ColorRGB
 90
-16777216
102
RTVSPost2010PropOp51
 70
     0
102
RTVSPost2010Prop52
140
1.0
102
RTVSPost2010PropOp52
 70
     0
102
RTVSPost2010Prop53
 90
        2
102
RTVSPost2010PropOp53
 70
     1
102
RTVSPost2010Prop54
  1
strokes_ogs.tif
102
RTVSPost2010PropOp54
 70
     1
102
RTVSPost2010Prop55
280
     0
102
RTVSPost2010PropOp55
 70
     1
102
RTVSPost2010Prop56
140
1.0
102
RTVSPost2010PropOp56
 70
     1
102
RTVSPost2010Prop57
140
1.0
102
RTVSPost2010PropOp57
 70
     1
102
RTVSPropertyOp0
 70
     1
102
RTVSPropertyOp1
 70
     1
102
RTVSPropertyOp2
 70
     1
102
RTVSPropertyOp3
 70
     1
102
RTVSPropertyOp4
 70
     1
102
RTVSPropertyOp5
 70
     1
102
RTVSPropertyOp6
 70
     1
102
RTVSPropertyOp7
 70
     1
102
RTVSPropertyOp8
 70
     1
102
RTVSPropertyOp9
 70
     1
102
RTVSPropertyOp10
 70
     1
102
RTVSPropertyOp11
 70
     1
102
RTVSPropertyOp12
 70
     1
102
RTVSPropertyOp13
 70
     1
102
RTVSPropertyOp14
 70
     1
102
RTVSPropertyOp15
 70
     1
102
RTVSPropertyOp16
 70
     1
102
RTVSPropertyOp17
 70
     1
102
RTVSPropertyOp18
 70
     1
102
RTVSPropertyOp19
 70
     1
102
RTVSPropertyOp20
 70
     1
102
RTVSPropertyOp21
 70
     1
102
RTVSPropertyOp22
 70
     1
102
RTVSPropertyOp23
 70
     1
102
RTVSPropertyOp24
 70
     1
102
RTVSPropertyOp25
 70
     1
102
RTVSPropertyOp26
 70
     1
102
RTVSPropertyOp27
 70
     1
102
RTVSPropertyOp28
 70
     1
102
RTVSPropertyOp29
 70
     1
102
RTVSPropertyOp30
 70
     1
102
RTVSPropertyOp31
 70
     1
102
RTVSPropertyOp32
 70
     1
102
RTVSPropertyOp33
 70
     1
102
RTVSPropertyOp34
 70
     1
102
RTVSPropertyOp35
 70
     1
102
RTVSPropertyOp36
 70
     1
102
RTVSPropertyOp37
 70
     1
102
RTVSPropertyOp38
 70
     1
102
RTVSPropertyOp39
 70
     1
102
RTVSPropertyOp40
 70
     1
102
RTVSPropertyOp41
 70
     1
102
RTVSPropertyOp42
 70
     1
102
RTVSPropertyOp43
 70
     1
102
RTVSPropertyOp44
 70
     1
102
RTVSPropertyOp45
 70
     1
102
RTVSPropertyOp46
 70
     1
102
RTVSPropertyOp47
 70
     1
102
RTVSPropertyOp48
 70
     1
102
RTVSPropertyOp49
 70
     1
102
RTVSPropertyOp50
 70
     1
102
RTVSPropertyOp51
 70
     0
102
RTVSPropertyOp52
 70
     0
102
RTVSPropertyOp53
 70
     1
102
RTVSPropertyOp54
 70
     1
102
RTVSPropertyOp55
 70
     1
102
RTVSPropertyOp56
 70
     1
102
RTVSPropertyOp57
 70
     1
102
RTVSPropertyOp58
 70
     1
102
RTVSPropertyOp59
 70
     1
102
RTVSPropertyOp60
 70
     1
102
RTVSPropertyOp61
 70
     1
102
RTVSPropertyOp62
 70
     1
  0
XRECORD
  5
139B
102
{ACAD_REACTORS
330
139A
102
}
330
139A
100
AcDbXrecord
280
     1
102
RTVSPost2010Prop28
280
     0
102
RTVSPost2010PropOp28
 70
     1
102
RTVSPost2010Prop29
280
     1
102
RTVSPost2010PropOp29
 70
     1
102
RTVSPost2010Prop30
280
     1
102
RTVSPost2010PropOp30
 70
     1
102
RTVSPost2010Prop31
280
     0
102
RTVSPost2010PropOp31
 70
     1
102
RTVSPost2010Prop32
280
     0
102
RTVSPost2010PropOp32
 70
     1
102
RTVSPost2010Prop33
280
     0
102
RTVSPost2010PropOp33
 70
     1
102
RTVSPost2010Prop34
280
     0
102
RTVSPost2010PropOp34
 70
     1
102
RTVSPost2010Prop35
280
     0
102
RTVSPost2010PropOp35
 70
     1
102
RTVSPost2010Prop36
280
     0
102
RTVSPost2010PropOp36
 70
     1
102
RTVSPost2010Prop37
 90
       50
102
RTVSPost2010PropOp37
 70
     1
102
RTVSPost2010Prop38
140
0.0
102
RTVSPost2010PropOp38
 70
     1
102
RTVSPost2010Prop39
140
1.0
102
RTVSPost2010PropOp39
 70
     1
102
RTVSPost2010Prop40
 90
        0
102
RTVSPost2010PropOp40
 70
     1
102
RTVSPost2010Prop41ColorIndex
 90
       18
102
RTVSPost2010Prop41ColorRGB
 90
        0
102
RTVSPost2010PropOp41
 70
     1
102
RTVSPost2010Prop42
 90
       50
102
RTVSPost2010PropOp42
 70
     1
102
RTVSPost2010Prop43
 90
        3
102
RTVSPost2010PropOp43
 70
     1
102
RTVSPost2010Prop44ColorIndex
 90
        5
102
RTVSPost2010Prop44ColorRGB
 90
      255
102
RTVSPost2010PropOp44
 70
     1
102
RTVSPost2010Prop45
280
     0
102
RTVSPost2010PropOp45
 70
     1
102
RTVSPost2010Prop46
 90
       50
102
RTVSPost2010PropOp46
 70
     1
102
RTVSPost2010Prop47
 90
       50
102
RTVSPost2010PropOp47
 70
     1
102
RTVSPost2010Prop48
 90
       50
102
RTVSPost2010PropOp48
 70
     1
102
RTVSPost2010Prop49
280
     0
102
RTVSPost2010PropOp49
 70
     1
102
RTVSPost2010Prop50
 90
       50
102
RTVSPost2010PropOp50
 70
     1
102
RTVSPost2010Prop51ColorIndex
 90
      256
102
RTVSPost2010Prop51ColorRGB
 90
-16777216
102
RTVSPost2010PropOp51
 70
     0
102
RTVSPost2010Prop52
140
1.0
102
RTVSPost2010PropOp52
 70
     0
102
RTVSPost2010Prop53
 90
        2
102
RTVSPost2010PropOp53
 70
     1
102
RTVSPost2010Prop54
  1
strokes_ogs.tif
102
RTVSPost2010PropOp54
 70
     1
102
RTVSPost2010Prop55
280
     0
102
RTVSPost2010PropOp55
 70
     1
102
RTVSPost2010Prop56
140
1.0
102
RTVSPost2010PropOp56
 70
     1
102
RTVSPost2010Prop57
140
1.0
102
RTVSPost2010PropOp57
 70
     1
102
RTVSPropertyOp0
 70
     1
102
RTVSPropertyOp1
 70
     1
102
RTVSPropertyOp2
 70
     1
102
RTVSPropertyOp3
 70
     1
102
RTVSPropertyOp4
 70
     1
102
RTVSPropertyOp5
 70
     1
102
RTVSPropertyOp6
 70
     1
102
RTVSPropertyOp7
 70
     1
102
RTVSPropertyOp8
 70
     1
102
RTVSPropertyOp9
 70
     1
102
RTVSPropertyOp10
 70
     1
102
RTVSPropertyOp11
 70
     1
102
RTVSPropertyOp12
 70
     1
102
RTVSPropertyOp13
 70
     1
102
RTVSPropertyOp14
 70
     1
102
RTVSPropertyOp15
 70
     1
102
RTVSPropertyOp16
 70
     1
102
RTVSPropertyOp17
 70
     1
102
RTVSPropertyOp18
 70
     1
102
RTVSPropertyOp19
 70
     1
102
RTVSPropertyOp20
 70
     1
102
RTVSPropertyOp21
 70
     1
102
RTVSPropertyOp22
 70
     1
102
RTVSPropertyOp23
 70
     1
102
RTVSPropertyOp24
 70
     1
102
RTVSPropertyOp25
 70
     1
102
RTVSPropertyOp26
 70
     1
102
RTVSPropertyOp27
 70
     1
102
RTVSPropertyOp28
 70
     1
102
RTVSPropertyOp29
 70
     1
102
RTVSPropertyOp30
 70
     1
102
RTVSPropertyOp31
 70
     1
102
RTVSPropertyOp32
 70
     1
102
RTVSPropertyOp33
 70
     1
102
RTVSPropertyOp34
 70
     1
102
RTVSPropertyOp35
 70
     1
102
RTVSPropertyOp36
 70
     1
102
RTVSPropertyOp37
 70
     1
102
RTVSPropertyOp38
 70
     1
102
RTVSPropertyOp39
 70
     1
102
RTVSPropertyOp40
 70
     1
102
RTVSPropertyOp41
 70
     1
102
RTVSPropertyOp42
 70
     1
102
RTVSPropertyOp43
 70
     1
102
RTVSPropertyOp44
 70
     1
102
RTVSPropertyOp45
 70
     1
102
RTVSPropertyOp46
 70
     1
102
RTVSPropertyOp47
 70
     1
102
RTVSPropertyOp48
 70
     1
102
RTVSPropertyOp49
 70
     1
102
RTVSPropertyOp50
 70
     1
102
RTVSPropertyOp51
 70
     0
102
RTVSPropertyOp52
 70
     0
102
RTVSPropertyOp53
 70
     1
102
RTVSPropertyOp54
 70
     1
102
RTVSPropertyOp55
 70
     1
102
RTVSPropertyOp56
 70
     1
102
RTVSPropertyOp57
 70
     1
102
RTVSPropertyOp58
 70
     1
102
RTVSPropertyOp59
 70
     1
102
RTVSPropertyOp60
 70
     1
102
RTVSPropertyOp61
 70
     1
102
RTVSPropertyOp62
 70
     1
  0
XRECORD
  5
1395
102
{ACAD_REACTORS
330
1394
102
}
330
1394
100
AcDbXrecord
280
     1
102
RTVSPost2010Prop28
280
     0
102
RTVSPost2010PropOp28
 70
     1
102
RTVSPost2010Prop29
280
     1
102
RTVSPost2010PropOp29
 70
     1
102
RTVSPost2010Prop30
280
     1
102
RTVSPost2010PropOp30
 70
     1
102
RTVSPost2010Prop31
280
     0
102
RTVSPost2010PropOp31
 70
     1
102
RTVSPost2010Prop32
280
     0
102
RTVSPost2010PropOp32
 70
     1
102
RTVSPost2010Prop33
280
     0
102
RTVSPost2010PropOp33
 70
     1
102
RTVSPost2010Prop34
280
     0
102
RTVSPost2010PropOp34
 70
     1
102
RTVSPost2010Prop35
280
     0
102
RTVSPost2010PropOp35
 70
     1
102
RTVSPost2010Prop36
280
     0
102
RTVSPost2010PropOp36
 70
     1
102
RTVSPost2010Prop37
 90
       50
102
RTVSPost2010PropOp37
 70
     1
102
RTVSPost2010Prop38
140
0.0
102
RTVSPost2010PropOp38
 70
     1
102
RTVSPost2010Prop39
140
1.0
102
RTVSPost2010PropOp39
 70
     1
102
RTVSPost2010Prop40
 90
        0
102
RTVSPost2010PropOp40
 70
     1
102
RTVSPost2010Prop41ColorIndex
 90
       18
102
RTVSPost2010Prop41ColorRGB
 90
        0
102
RTVSPost2010PropOp41
 70
     1
102
RTVSPost2010Prop42
 90
       50
102
RTVSPost2010PropOp42
 70
     1
102
RTVSPost2010Prop43
 90
        3
102
RTVSPost2010PropOp43
 70
     1
102
RTVSPost2010Prop44ColorIndex
 90
        5
102
RTVSPost2010Prop44ColorRGB
 90
      255
102
RTVSPost2010PropOp44
 70
     1
102
RTVSPost2010Prop45
280
     0
102
RTVSPost2010PropOp45
 70
     1
102
RTVSPost2010Prop46
 90
       50
102
RTVSPost2010PropOp46
 70
     1
102
RTVSPost2010Prop47
 90
       50
102
RTVSPost2010PropOp47
 70
     1
102
RTVSPost2010Prop48
 90
       50
102
RTVSPost2010PropOp48
 70
     1
102
RTVSPost2010Prop49
280
     0
102
RTVSPost2010PropOp49
 70
     1
102
RTVSPost2010Prop50
 90
       50
102
RTVSPost2010PropOp50
 70
     1
102
RTVSPost2010Prop51ColorIndex
 90
      256
102
RTVSPost2010Prop51ColorRGB
 90
-16777216
102
RTVSPost2010PropOp51
 70
     0
102
RTVSPost2010Prop52
140
1.0
102
RTVSPost2010PropOp52
 70
     0
102
RTVSPost2010Prop53
 90
        2
102
RTVSPost2010PropOp53
 70
     1
102
RTVSPost2010Prop54
  1
strokes_ogs.tif
102
RTVSPost2010PropOp54
 70
     1
102
RTVSPost2010Prop55
280
     0
102
RTVSPost2010PropOp55
 70
     1
102
RTVSPost2010Prop56
140
1.0
102
RTVSPost2010PropOp56
 70
     1
102
RTVSPost2010Prop57
140
1.0
102
RTVSPost2010PropOp57
 70
     1
102
RTVSPropertyOp0
 70
     1
102
RTVSPropertyOp1
 70
     1
102
RTVSPropertyOp2
 70
     1
102
RTVSPropertyOp3
 70
     1
102
RTVSPropertyOp4
 70
     1
102
RTVSPropertyOp5
 70
     1
102
RTVSPropertyOp6
 70
     1
102
RTVSPropertyOp7
 70
     1
102
RTVSPropertyOp8
 70
     1
102
RTVSPropertyOp9
 70
     1
102
RTVSPropertyOp10
 70
     1
102
RTVSPropertyOp11
 70
     1
102
RTVSPropertyOp12
 70
     1
102
RTVSPropertyOp13
 70
     1
102
RTVSPropertyOp14
 70
     1
102
RTVSPropertyOp15
 70
     1
102
RTVSPropertyOp16
 70
     1
102
RTVSPropertyOp17
 70
     1
102
RTVSPropertyOp18
 70
     1
102
RTVSPropertyOp19
 70
     1
102
RTVSPropertyOp20
 70
     1
102
RTVSPropertyOp21
 70
     1
102
RTVSPropertyOp22
 70
     1
102
RTVSPropertyOp23
 70
     1
102
RTVSPropertyOp24
 70
     1
102
RTVSPropertyOp25
 70
     1
102
RTVSPropertyOp26
 70
     1
102
RTVSPropertyOp27
 70
     1
102
RTVSPropertyOp28
 70
     1
102
RTVSPropertyOp29
 70
     1
102
RTVSPropertyOp30
 70
     1
102
RTVSPropertyOp31
 70
     1
102
RTVSPropertyOp32
 70
     1
102
RTVSPropertyOp33
 70
     1
102
RTVSPropertyOp34
 70
     1
102
RTVSPropertyOp35
 70
     1
102
RTVSPropertyOp36
 70
     1
102
RTVSPropertyOp37
 70
     1
102
RTVSPropertyOp38
 70
     1
102
RTVSPropertyOp39
 70
     1
102
RTVSPropertyOp40
 70
     1
102
RTVSPropertyOp41
 70
     1
102
RTVSPropertyOp42
 70
     1
102
RTVSPropertyOp43
 70
     1
102
RTVSPropertyOp44
 70
     1
102
RTVSPropertyOp45
 70
     1
102
RTVSPropertyOp46
 70
     1
102
RTVSPropertyOp47
 70
     1
102
RTVSPropertyOp48
 70
     1
102
RTVSPropertyOp49
 70
     1
102
RTVSPropertyOp50
 70
     1
102
RTVSPropertyOp51
 70
     0
102
RTVSPropertyOp52
 70
     0
102
RTVSPropertyOp53
 70
     1
102
RTVSPropertyOp54
 70
     1
102
RTVSPropertyOp55
 70
     1
102
RTVSPropertyOp56
 70
     1
102
RTVSPropertyOp57
 70
     1
102
RTVSPropertyOp58
 70
     1
102
RTVSPropertyOp59
 70
     1
102
RTVSPropertyOp60
 70
     1
102
RTVSPropertyOp61
 70
     1
102
RTVSPropertyOp62
 70
     1
  0
XRECORD
  5
1397
102
{ACAD_REACTORS
330
1396
102
}
330
1396
100
AcDbXrecord
280
     1
102
RTVSPost2010Prop28
280
     0
102
RTVSPost2010PropOp28
 70
     1
102
RTVSPost2010Prop29
280
     1
102
RTVSPost2010PropOp29
 70
     1
102
RTVSPost2010Prop30
280
     1
102
RTVSPost2010PropOp30
 70
     1
102
RTVSPost2010Prop31
280
     0
102
RTVSPost2010PropOp31
 70
     1
102
RTVSPost2010Prop32
280
     0
102
RTVSPost2010PropOp32
 70
     1
102
RTVSPost2010Prop33
280
     0
102
RTVSPost2010PropOp33
 70
     1
102
RTVSPost2010Prop34
280
     0
102
RTVSPost2010PropOp34
 70
     1
102
RTVSPost2010Prop35
280
     0
102
RTVSPost2010PropOp35
 70
     1
102
RTVSPost2010Prop36
280
     0
102
RTVSPost2010PropOp36
 70
     1
102
RTVSPost2010Prop37
 90
       50
102
RTVSPost2010PropOp37
 70
     1
102
RTVSPost2010Prop38
140
0.0
102
RTVSPost2010PropOp38
 70
     1
102
RTVSPost2010Prop39
140
1.0
102
RTVSPost2010PropOp39
 70
     1
102
RTVSPost2010Prop40
 90
        0
102
RTVSPost2010PropOp40
 70
     1
102
RTVSPost2010Prop41ColorIndex
 90
       18
102
RTVSPost2010Prop41ColorRGB
 90
        0
102
RTVSPost2010PropOp41
 70
     1
102
RTVSPost2010Prop42
 90
       50
102
RTVSPost2010PropOp42
 70
     1
102
RTVSPost2010Prop43
 90
        3
102
RTVSPost2010PropOp43
 70
     1
102
RTVSPost2010Prop44ColorIndex
 90
        5
102
RTVSPost2010Prop44ColorRGB
 90
      255
102
RTVSPost2010PropOp44
 70
     1
102
RTVSPost2010Prop45
280
     0
102
RTVSPost2010PropOp45
 70
     1
102
RTVSPost2010Prop46
 90
       50
102
RTVSPost2010PropOp46
 70
     1
102
RTVSPost2010Prop47
 90
       50
102
RTVSPost2010PropOp47
 70
     1
102
RTVSPost2010Prop48
 90
       50
102
RTVSPost2010PropOp48
 70
     1
102
RTVSPost2010Prop49
280
     0
102
RTVSPost2010PropOp49
 70
     1
102
RTVSPost2010Prop50
 90
       50
102
RTVSPost2010PropOp50
 70
     1
102
RTVSPost2010Prop51ColorIndex
 90
      256
102
RTVSPost2010Prop51ColorRGB
 90
-16777216
102
RTVSPost2010PropOp51
 70
     0
102
RTVSPost2010Prop52
140
1.0
102
RTVSPost2010PropOp52
 70
     0
102
RTVSPost2010Prop53
 90
        2
102
RTVSPost2010PropOp53
 70
     1
102
RTVSPost2010Prop54
  1
strokes_ogs.tif
102
RTVSPost2010PropOp54
 70
     1
102
RTVSPost2010Prop55
280
     0
102
RTVSPost2010PropOp55
 70
     1
102
RTVSPost2010Prop56
140
1.0
102
RTVSPost2010PropOp56
 70
     1
102
RTVSPost2010Prop57
140
1.0
102
RTVSPost2010PropOp57
 70
     1
102
RTVSPropertyOp0
 70
     1
102
RTVSPropertyOp1
 70
     1
102
RTVSPropertyOp2
 70
     1
102
RTVSPropertyOp3
 70
     1
102
RTVSPropertyOp4
 70
     1
102
RTVSPropertyOp5
 70
     1
102
RTVSPropertyOp6
 70
     1
102
RTVSPropertyOp7
 70
     1
102
RTVSPropertyOp8
 70
     1
102
RTVSPropertyOp9
 70
     1
102
RTVSPropertyOp10
 70
     1
102
RTVSPropertyOp11
 70
     1
102
RTVSPropertyOp12
 70
     1
102
RTVSPropertyOp13
 70
     1
102
RTVSPropertyOp14
 70
     1
102
RTVSPropertyOp15
 70
     1
102
RTVSPropertyOp16
 70
     1
102
RTVSPropertyOp17
 70
     1
102
RTVSPropertyOp18
 70
     1
102
RTVSPropertyOp19
 70
     1
102
RTVSPropertyOp20
 70
     1
102
RTVSPropertyOp21
 70
     1
102
RTVSPropertyOp22
 70
     1
102
RTVSPropertyOp23
 70
     1
102
RTVSPropertyOp24
 70
     1
102
RTVSPropertyOp25
 70
     1
102
RTVSPropertyOp26
 70
     1
102
RTVSPropertyOp27
 70
     1
102
RTVSPropertyOp28
 70
     1
102
RTVSPropertyOp29
 70
     1
102
RTVSPropertyOp30
 70
     1
102
RTVSPropertyOp31
 70
     1
102
RTVSPropertyOp32
 70
     1
102
RTVSPropertyOp33
 70
     1
102
RTVSPropertyOp34
 70
     1
102
RTVSPropertyOp35
 70
     1
102
RTVSPropertyOp36
 70
     1
102
RTVSPropertyOp37
 70
     1
102
RTVSPropertyOp38
 70
     1
102
RTVSPropertyOp39
 70
     1
102
RTVSPropertyOp40
 70
     1
102
RTVSPropertyOp41
 70
     1
102
RTVSPropertyOp42
 70
     1
102
RTVSPropertyOp43
 70
     1
102
RTVSPropertyOp44
 70
     1
102
RTVSPropertyOp45
 70
     1
102
RTVSPropertyOp46
 70
     1
102
RTVSPropertyOp47
 70
     1
102
RTVSPropertyOp48
 70
     1
102
RTVSPropertyOp49
 70
     1
102
RTVSPropertyOp50
 70
     1
102
RTVSPropertyOp51
 70
     0
102
RTVSPropertyOp52
 70
     0
102
RTVSPropertyOp53
 70
     1
102
RTVSPropertyOp54
 70
     1
102
RTVSPropertyOp55
 70
     1
102
RTVSPropertyOp56
 70
     1
102
RTVSPropertyOp57
 70
     1
102
RTVSPropertyOp58
 70
     1
102
RTVSPropertyOp59
 70
     1
102
RTVSPropertyOp60
 70
     1
102
RTVSPropertyOp61
 70
     1
102
RTVSPropertyOp62
 70
     1
  0
XRECORD
  5
1385
102
{ACAD_REACTORS
330
1384
102
}
330
1384
100
AcDbXrecord
280
     1
102
RTVSPost2010Prop28
280
     0
102
RTVSPost2010PropOp28
 70
     1
102
RTVSPost2010Prop29
280
     1
102
RTVSPost2010PropOp29
 70
     1
102
RTVSPost2010Prop30
280
     1
102
RTVSPost2010PropOp30
 70
     1
102
RTVSPost2010Prop31
280
     0
102
RTVSPost2010PropOp31
 70
     1
102
RTVSPost2010Prop32
280
     0
102
RTVSPost2010PropOp32
 70
     1
102
RTVSPost2010Prop33
280
     0
102
RTVSPost2010PropOp33
 70
     1
102
RTVSPost2010Prop34
280
     0
102
RTVSPost2010PropOp34
 70
     1
102
RTVSPost2010Prop35
280
     0
102
RTVSPost2010PropOp35
 70
     1
102
RTVSPost2010Prop36
280
     0
102
RTVSPost2010PropOp36
 70
     1
102
RTVSPost2010Prop37
 90
       50
102
RTVSPost2010PropOp37
 70
     1
102
RTVSPost2010Prop38
140
0.0
102
RTVSPost2010PropOp38
 70
     1
102
RTVSPost2010Prop39
140
1.0
102
RTVSPost2010PropOp39
 70
     1
102
RTVSPost2010Prop40
 90
        0
102
RTVSPost2010PropOp40
 70
     1
102
RTVSPost2010Prop41ColorIndex
 90
       18
102
RTVSPost2010Prop41ColorRGB
 90
        0
102
RTVSPost2010PropOp41
 70
     1
102
RTVSPost2010Prop42
 90
       50
102
RTVSPost2010PropOp42
 70
     1
102
RTVSPost2010Prop43
 90
        3
102
RTVSPost2010PropOp43
 70
     1
102
RTVSPost2010Prop44ColorIndex
 90
        5
102
RTVSPost2010Prop44ColorRGB
 90
      255
102
RTVSPost2010PropOp44
 70
     1
102
RTVSPost2010Prop45
280
     0
102
RTVSPost2010PropOp45
 70
     1
102
RTVSPost2010Prop46
 90
       50
102
RTVSPost2010PropOp46
 70
     1
102
RTVSPost2010Prop47
 90
       50
102
RTVSPost2010PropOp47
 70
     1
102
RTVSPost2010Prop48
 90
       50
102
RTVSPost2010PropOp48
 70
     1
102
RTVSPost2010Prop49
280
     0
102
RTVSPost2010PropOp49
 70
     1
102
RTVSPost2010Prop50
 90
       50
102
RTVSPost2010PropOp50
 70
     1
102
RTVSPost2010Prop51ColorIndex
 90
      256
102
RTVSPost2010Prop51ColorRGB
 90
-16777216
102
RTVSPost2010PropOp51
 70
     0
102
RTVSPost2010Prop52
140
1.0
102
RTVSPost2010PropOp52
 70
     0
102
RTVSPost2010Prop53
 90
        2
102
RTVSPost2010PropOp53
 70
     1
102
RTVSPost2010Prop54
  1
strokes_ogs.tif
102
RTVSPost2010PropOp54
 70
     1
102
RTVSPost2010Prop55
280
     0
102
RTVSPost2010PropOp55
 70
     1
102
RTVSPost2010Prop56
140
1.0
102
RTVSPost2010PropOp56
 70
     1
102
RTVSPost2010Prop57
140
1.0
102
RTVSPost2010PropOp57
 70
     1
102
RTVSPropertyOp0
 70
     1
102
RTVSPropertyOp1
 70
     1
102
RTVSPropertyOp2
 70
     1
102
RTVSPropertyOp3
 70
     1
102
RTVSPropertyOp4
 70
     1
102
RTVSPropertyOp5
 70
     1
102
RTVSPropertyOp6
 70
     1
102
RTVSPropertyOp7
 70
     1
102
RTVSPropertyOp8
 70
     1
102
RTVSPropertyOp9
 70
     1
102
RTVSPropertyOp10
 70
     1
102
RTVSPropertyOp11
 70
     1
102
RTVSPropertyOp12
 70
     1
102
RTVSPropertyOp13
 70
     1
102
RTVSPropertyOp14
 70
     1
102
RTVSPropertyOp15
 70
     1
102
RTVSPropertyOp16
 70
     1
102
RTVSPropertyOp17
 70
     1
102
RTVSPropertyOp18
 70
     1
102
RTVSPropertyOp19
 70
     1
102
RTVSPropertyOp20
 70
     1
102
RTVSPropertyOp21
 70
     1
102
RTVSPropertyOp22
 70
     1
102
RTVSPropertyOp23
 70
     1
102
RTVSPropertyOp24
 70
     1
102
RTVSPropertyOp25
 70
     1
102
RTVSPropertyOp26
 70
     1
102
RTVSPropertyOp27
 70
     1
102
RTVSPropertyOp28
 70
     1
102
RTVSPropertyOp29
 70
     1
102
RTVSPropertyOp30
 70
     1
102
RTVSPropertyOp31
 70
     1
102
RTVSPropertyOp32
 70
     1
102
RTVSPropertyOp33
 70
     1
102
RTVSPropertyOp34
 70
     1
102
RTVSPropertyOp35
 70
     1
102
RTVSPropertyOp36
 70
     1
102
RTVSPropertyOp37
 70
     1
102
RTVSPropertyOp38
 70
     1
102
RTVSPropertyOp39
 70
     1
102
RTVSPropertyOp40
 70
     1
102
RTVSPropertyOp41
 70
     1
102
RTVSPropertyOp42
 70
     1
102
RTVSPropertyOp43
 70
     1
102
RTVSPropertyOp44
 70
     1
102
RTVSPropertyOp45
 70
     1
102
RTVSPropertyOp46
 70
     1
102
RTVSPropertyOp47
 70
     1
102
RTVSPropertyOp48
 70
     1
102
RTVSPropertyOp49
 70
     1
102
RTVSPropertyOp50
 70
     1
102
RTVSPropertyOp51
 70
     0
102
RTVSPropertyOp52
 70
     0
102
RTVSPropertyOp53
 70
     1
102
RTVSPropertyOp54
 70
     1
102
RTVSPropertyOp55
 70
     1
102
RTVSPropertyOp56
 70
     1
102
RTVSPropertyOp57
 70
     1
102
RTVSPropertyOp58
 70
     1
102
RTVSPropertyOp59
 70
     1
102
RTVSPropertyOp60
 70
     1
102
RTVSPropertyOp61
 70
     1
102
RTVSPropertyOp62
 70
     1
  0
XRECORD
  5
1379
102
{ACAD_REACTORS
330
1378
102
}
330
1378
100
AcDbXrecord
280
     1
102
RTVSPost2010Prop28
280
     0
102
RTVSPost2010PropOp28
 70
     1
102
RTVSPost2010Prop29
280
     1
102
RTVSPost2010PropOp29
 70
     1
102
RTVSPost2010Prop30
280
     1
102
RTVSPost2010PropOp30
 70
     1
102
RTVSPost2010Prop31
280
     0
102
RTVSPost2010PropOp31
 70
     1
102
RTVSPost2010Prop32
280
     0
102
RTVSPost2010PropOp32
 70
     1
102
RTVSPost2010Prop33
280
     0
102
RTVSPost2010PropOp33
 70
     1
102
RTVSPost2010Prop34
280
     0
102
RTVSPost2010PropOp34
 70
     1
102
RTVSPost2010Prop35
280
     0
102
RTVSPost2010PropOp35
 70
     1
102
RTVSPost2010Prop36
280
     0
102
RTVSPost2010PropOp36
 70
     1
102
RTVSPost2010Prop37
 90
       50
102
RTVSPost2010PropOp37
 70
     1
102
RTVSPost2010Prop38
140
0.0
102
RTVSPost2010PropOp38
 70
     1
102
RTVSPost2010Prop39
140
1.0
102
RTVSPost2010PropOp39
 70
     1
102
RTVSPost2010Prop40
 90
        0
102
RTVSPost2010PropOp40
 70
     1
102
RTVSPost2010Prop41ColorIndex
 90
       18
102
RTVSPost2010Prop41ColorRGB
 90
        0
102
RTVSPost2010PropOp41
 70
     1
102
RTVSPost2010Prop42
 90
       50
102
RTVSPost2010PropOp42
 70
     1
102
RTVSPost2010Prop43
 90
        3
102
RTVSPost2010PropOp43
 70
     1
102
RTVSPost2010Prop44ColorIndex
 90
        5
102
RTVSPost2010Prop44ColorRGB
 90
      255
102
RTVSPost2010PropOp44
 70
     1
102
RTVSPost2010Prop45
280
     0
102
RTVSPost2010PropOp45
 70
     1
102
RTVSPost2010Prop46
 90
       50
102
RTVSPost2010PropOp46
 70
     1
102
RTVSPost2010Prop47
 90
       50
102
RTVSPost2010PropOp47
 70
     1
102
RTVSPost2010Prop48
 90
       50
102
RTVSPost2010PropOp48
 70
     1
102
RTVSPost2010Prop49
280
     0
102
RTVSPost2010PropOp49
 70
     1
102
RTVSPost2010Prop50
 90
       50
102
RTVSPost2010PropOp50
 70
     1
102
RTVSPost2010Prop51ColorIndex
 90
      256
102
RTVSPost2010Prop51ColorRGB
 90
-16777216
102
RTVSPost2010PropOp51
 70
     0
102
RTVSPost2010Prop52
140
1.0
102
RTVSPost2010PropOp52
 70
     0
102
RTVSPost2010Prop53
 90
        2
102
RTVSPost2010PropOp53
 70
     1
102
RTVSPost2010Prop54
  1
strokes_ogs.tif
102
RTVSPost2010PropOp54
 70
     1
102
RTVSPost2010Prop55
280
     0
102
RTVSPost2010PropOp55
 70
     1
102
RTVSPost2010Prop56
140
1.0
102
RTVSPost2010PropOp56
 70
     1
102
RTVSPost2010Prop57
140
1.0
102
RTVSPost2010PropOp57
 70
     1
102
RTVSPropertyOp0
 70
     1
102
RTVSPropertyOp1
 70
     1
102
RTVSPropertyOp2
 70
     1
102
RTVSPropertyOp3
 70
     1
102
RTVSPropertyOp4
 70
     1
102
RTVSPropertyOp5
 70
     1
102
RTVSPropertyOp6
 70
     1
102
RTVSPropertyOp7
 70
     1
102
RTVSPropertyOp8
 70
     1
102
RTVSPropertyOp9
 70
     1
102
RTVSPropertyOp10
 70
     1
102
RTVSPropertyOp11
 70
     1
102
RTVSPropertyOp12
 70
     1
102
RTVSPropertyOp13
 70
     1
102
RTVSPropertyOp14
 70
     1
102
RTVSPropertyOp15
 70
     1
102
RTVSPropertyOp16
 70
     1
102
RTVSPropertyOp17
 70
     1
102
RTVSPropertyOp18
 70
     1
102
RTVSPropertyOp19
 70
     1
102
RTVSPropertyOp20
 70
     1
102
RTVSPropertyOp21
 70
     1
102
RTVSPropertyOp22
 70
     1
102
RTVSPropertyOp23
 70
     1
102
RTVSPropertyOp24
 70
     1
102
RTVSPropertyOp25
 70
     1
102
RTVSPropertyOp26
 70
     1
102
RTVSPropertyOp27
 70
     1
102
RTVSPropertyOp28
 70
     1
102
RTVSPropertyOp29
 70
     1
102
RTVSPropertyOp30
 70
     1
102
RTVSPropertyOp31
 70
     1
102
RTVSPropertyOp32
 70
     1
102
RTVSPropertyOp33
 70
     1
102
RTVSPropertyOp34
 70
     1
102
RTVSPropertyOp35
 70
     1
102
RTVSPropertyOp36
 70
     1
102
RTVSPropertyOp37
 70
     1
102
RTVSPropertyOp38
 70
     1
102
RTVSPropertyOp39
 70
     1
102
RTVSPropertyOp40
 70
     1
102
RTVSPropertyOp41
 70
     1
102
RTVSPropertyOp42
 70
     1
102
RTVSPropertyOp43
 70
     1
102
RTVSPropertyOp44
 70
     1
102
RTVSPropertyOp45
 70
     1
102
RTVSPropertyOp46
 70
     1
102
RTVSPropertyOp47
 70
     1
102
RTVSPropertyOp48
 70
     1
102
RTVSPropertyOp49
 70
     1
102
RTVSPropertyOp50
 70
     1
102
RTVSPropertyOp51
 70
     0
102
RTVSPropertyOp52
 70
     0
102
RTVSPropertyOp53
 70
     1
102
RTVSPropertyOp54
 70
     1
102
RTVSPropertyOp55
 70
     1
102
RTVSPropertyOp56
 70
     1
102
RTVSPropertyOp57
 70
     1
102
RTVSPropertyOp58
 70
     1
102
RTVSPropertyOp59
 70
     1
102
RTVSPropertyOp60
 70
     1
102
RTVSPropertyOp61
 70
     1
102
RTVSPropertyOp62
 70
     1
  0
XRECORD
  5
1399
102
{ACAD_REACTORS
330
1398
102
}
330
1398
100
AcDbXrecord
280
     1
102
RTVSPost2010Prop28
280
     0
102
RTVSPost2010PropOp28
 70
     1
102
RTVSPost2010Prop29
280
     1
102
RTVSPost2010PropOp29
 70
     1
102
RTVSPost2010Prop30
280
     1
102
RTVSPost2010PropOp30
 70
     1
102
RTVSPost2010Prop31
280
     0
102
RTVSPost2010PropOp31
 70
     1
102
RTVSPost2010Prop32
280
     0
102
RTVSPost2010PropOp32
 70
     1
102
RTVSPost2010Prop33
280
     0
102
RTVSPost2010PropOp33
 70
     1
102
RTVSPost2010Prop34
280
     0
102
RTVSPost2010PropOp34
 70
     1
102
RTVSPost2010Prop35
280
     0
102
RTVSPost2010PropOp35
 70
     1
102
RTVSPost2010Prop36
280
     0
102
RTVSPost2010PropOp36
 70
     1
102
RTVSPost2010Prop37
 90
       50
102
RTVSPost2010PropOp37
 70
     1
102
RTVSPost2010Prop38
140
0.0
102
RTVSPost2010PropOp38
 70
     1
102
RTVSPost2010Prop39
140
1.0
102
RTVSPost2010PropOp39
 70
     1
102
RTVSPost2010Prop40
 90
        0
102
RTVSPost2010PropOp40
 70
     1
102
RTVSPost2010Prop41ColorIndex
 90
       18
102
RTVSPost2010Prop41ColorRGB
 90
        0
102
RTVSPost2010PropOp41
 70
     1
102
RTVSPost2010Prop42
 90
       50
102
RTVSPost2010PropOp42
 70
     1
102
RTVSPost2010Prop43
 90
        3
102
RTVSPost2010PropOp43
 70
     1
102
RTVSPost2010Prop44ColorIndex
 90
        5
102
RTVSPost2010Prop44ColorRGB
 90
      255
102
RTVSPost2010PropOp44
 70
     1
102
RTVSPost2010Prop45
280
     0
102
RTVSPost2010PropOp45
 70
     1
102
RTVSPost2010Prop46
 90
       50
102
RTVSPost2010PropOp46
 70
     1
102
RTVSPost2010Prop47
 90
       50
102
RTVSPost2010PropOp47
 70
     1
102
RTVSPost2010Prop48
 90
       50
102
RTVSPost2010PropOp48
 70
     1
102
RTVSPost2010Prop49
280
     0
102
RTVSPost2010PropOp49
 70
     1
102
RTVSPost2010Prop50
 90
       50
102
RTVSPost2010PropOp50
 70
     1
102
RTVSPost2010Prop51ColorIndex
 90
      256
102
RTVSPost2010Prop51ColorRGB
 90
-16777216
102
RTVSPost2010PropOp51
 70
     0
102
RTVSPost2010Prop52
140
1.0
102
RTVSPost2010PropOp52
 70
     0
102
RTVSPost2010Prop53
 90
        2
102
RTVSPost2010PropOp53
 70
     1
102
RTVSPost2010Prop54
  1
strokes_ogs.tif
102
RTVSPost2010PropOp54
 70
     1
102
RTVSPost2010Prop55
280
     0
102
RTVSPost2010PropOp55
 70
     1
102
RTVSPost2010Prop56
140
1.0
102
RTVSPost2010PropOp56
 70
     1
102
RTVSPost2010Prop57
140
1.0
102
RTVSPost2010PropOp57
 70
     1
102
RTVSPropertyOp0
 70
     1
102
RTVSPropertyOp1
 70
     1
102
RTVSPropertyOp2
 70
     1
102
RTVSPropertyOp3
 70
     1
102
RTVSPropertyOp4
 70
     1
102
RTVSPropertyOp5
 70
     1
102
RTVSPropertyOp6
 70
     1
102
RTVSPropertyOp7
 70
     1
102
RTVSPropertyOp8
 70
     1
102
RTVSPropertyOp9
 70
     1
102
RTVSPropertyOp10
 70
     1
102
RTVSPropertyOp11
 70
     1
102
RTVSPropertyOp12
 70
     1
102
RTVSPropertyOp13
 70
     1
102
RTVSPropertyOp14
 70
     1
102
RTVSPropertyOp15
 70
     1
102
RTVSPropertyOp16
 70
     1
102
RTVSPropertyOp17
 70
     1
102
RTVSPropertyOp18
 70
     1
102
RTVSPropertyOp19
 70
     1
102
RTVSPropertyOp20
 70
     1
102
RTVSPropertyOp21
 70
     1
102
RTVSPropertyOp22
 70
     1
102
RTVSPropertyOp23
 70
     1
102
RTVSPropertyOp24
 70
     1
102
RTVSPropertyOp25
 70
     1
102
RTVSPropertyOp26
 70
     1
102
RTVSPropertyOp27
 70
     1
102
RTVSPropertyOp28
 70
     1
102
RTVSPropertyOp29
 70
     1
102
RTVSPropertyOp30
 70
     1
102
RTVSPropertyOp31
 70
     1
102
RTVSPropertyOp32
 70
     1
102
RTVSPropertyOp33
 70
     1
102
RTVSPropertyOp34
 70
     1
102
RTVSPropertyOp35
 70
     1
102
RTVSPropertyOp36
 70
     1
102
RTVSPropertyOp37
 70
     1
102
RTVSPropertyOp38
 70
     1
102
RTVSPropertyOp39
 70
     1
102
RTVSPropertyOp40
 70
     1
102
RTVSPropertyOp41
 70
     1
102
RTVSPropertyOp42
 70
     1
102
RTVSPropertyOp43
 70
     1
102
RTVSPropertyOp44
 70
     1
102
RTVSPropertyOp45
 70
     1
102
RTVSPropertyOp46
 70
     1
102
RTVSPropertyOp47
 70
     1
102
RTVSPropertyOp48
 70
     1
102
RTVSPropertyOp49
 70
     1
102
RTVSPropertyOp50
 70
     1
102
RTVSPropertyOp51
 70
     0
102
RTVSPropertyOp52
 70
     0
102
RTVSPropertyOp53
 70
     1
102
RTVSPropertyOp54
 70
     1
102
RTVSPropertyOp55
 70
     1
102
RTVSPropertyOp56
 70
     1
102
RTVSPropertyOp57
 70
     1
102
RTVSPropertyOp58
 70
     1
102
RTVSPropertyOp59
 70
     1
102
RTVSPropertyOp60
 70
     1
102
RTVSPropertyOp61
 70
     1
102
RTVSPropertyOp62
 70
     1
  0
ENDSEC
  0
EOF
